  0
SECTION
  2
HEADER
  9
$ACADVER
  1
AC1003
  9
$EXTMIN
 10
-4.27265932871718
 20
6.64558185548972
  9
$EXTMAX
 10
28.0597937925422
 20
-0.0977500121606969
  9
$INSUNITS
 70
1
  9
$INSBASE
 10
11.8935672319125
 20
3.27391592166451
999
Created with OMAX Layout for Windows. (www.omax.com) 2015-11-26
  0
ENDSEC
  0
SECTION
  2
TABLES
  0
TABLE
  2
LAYER
 70
    10
  0
LAYER
  2
0
 70
     0
 62
     7
  6
CONTINUOUS
  0
LAYER
  2
1
 70
     0
 62
     7
  6
CONTINUOUS
  0
LAYER
  2
2
 70
     0
 62
     7
  6
CONTINUOUS
  0
LAYER
  2
3
 70
     0
 62
     7
  6
CONTINUOUS
  0
LAYER
  2
4
 70
     0
 62
     7
  6
CONTINUOUS
  0
LAYER
  2
5
 70
     0
 62
     7
  6
CONTINUOUS
  0
LAYER
  2
6
 70
     0
 62
     7
  6
CONTINUOUS
  0
LAYER
  2
7
 70
     0
 62
     7
  6
CONTINUOUS
  0
LAYER
  2
8
 70
     0
 62
     7
  6
CONTINUOUS
  0
LAYER
  2
9
 70
     0
 62
     7
  6
CONTINUOUS
  0
LAYER
  2
10
 70
     0
 62
     7
  6
CONTINUOUS
  0
LAYER
  2
11
 70
     0
 62
     7
  6
CONTINUOUS
  0
LAYER
  2
12
 70
     0
 62
     7
  6
CONTINUOUS
  0
LAYER
  2
13
 70
     0
 62
     7
  6
CONTINUOUS
  0
LAYER
  2
14
 70
     0
 62
     7
  6
CONTINUOUS
  0
LAYER
  2
15
 70
     0
 62
     7
  6
CONTINUOUS
  0
LAYER
  2
16
 70
     0
 62
     7
  6
CONTINUOUS
  0
LAYER
  2
17
 70
     0
 62
     7
  6
CONTINUOUS
  0
LAYER
  2
18
 70
     0
 62
     7
  6
CONTINUOUS
  0
LAYER
  2
19
 70
     0
 62
     7
  6
CONTINUOUS
  0
LAYER
  2
20
 70
     0
 62
     7
  6
CONTINUOUS
  0
LAYER
  2
21
 70
     0
 62
     7
  6
CONTINUOUS
  0
LAYER
  2
22
 70
     0
 62
     7
  6
CONTINUOUS
  0
LAYER
  2
23
 70
     0
 62
     7
  6
CONTINUOUS
  0
LAYER
  2
24
 70
     0
 62
     7
  6
CONTINUOUS
  0
LAYER
  2
25
 70
     0
 62
     7
  6
CONTINUOUS
  0
LAYER
  2
26
 70
     0
 62
     7
  6
CONTINUOUS
  0
LAYER
  2
27
 70
     0
 62
     7
  6
CONTINUOUS
  0
LAYER
  2
28
 70
     0
 62
     7
  6
CONTINUOUS
  0
LAYER
  2
29
 70
     0
 62
     7
  6
CONTINUOUS
  0
LAYER
  2
30
 70
     0
 62
     7
  6
CONTINUOUS
  0
LAYER
  2
31
 70
     0
 62
     7
  6
CONTINUOUS
  0
ENDTAB
  0
ENDSEC
  0
SECTION
  2
ENTITIES
  0
ARC
  8
0
  6
CONTINUOUS
 62
0
 10
-3.34909818611365
 20
0.8537839510789
 30
0.0
 40
0.923561142603524
 50
178.073376603045
 51
236.060915895031
  0
ARC
  8
0
  6
CONTINUOUS
 62
0
 10
-3.04747663449619
 20
1.90955031074178
 30
0.0
 40
1.99687893436998
 50
245.841221604562
 51
284.67550518145
  0
ARC
  8
0
  6
CONTINUOUS
 62
0
 10
-4.09098491343061
 20
4.8265202390844
 30
0.0
 40
5.09024368108117
 50
287.721316179929
 51
311.443088248459
  0
ARC
  8
0
  6
CONTINUOUS
 62
0
 10
-4.92544782897164
 20
5.88743054230597
 30
0.0
 40
6.4382836771944
 50
310.760802287208
 51
338.425466238247
  0
ARC
  8
0
  6
CONTINUOUS
 62
0
 10
6.78725649224173
 20
1.41761566262018
 30
0.0
 40
6.09928051093591
 50
124.68620458942
 51
127.65418861184
  0
ARC
  8
0
  6
CONTINUOUS
 62
0
 10
7.1303772424315
 20
-0.107198666821157
 30
0.0
 40
7.80796941077627
 50
120.354587274018
 51
123.645053092894
  0
ARC
  8
0
  6
CONTINUOUS
 62
0
 10
-9.8200414314854
 20
8.9054942862684
 30
0.0
 40
11.414454508033
 50
323.123257081607
 51
334.411306095427
  0
ARC
  8
0
  6
CONTINUOUS
 62
0
 10
-4.19963809846427
 20
3.84107065488326
 30
0.0
 40
3.93826607988229
 50
292.900430987422
 51
333.042369911052
  0
ARC
  8
0
  6
CONTINUOUS
 62
0
 10
-2.90930352901958
 20
1.04498989232941
 30
0.0
 40
0.866316393949634
 50
248.2458626041
 51
286.23249676215
  0
ARC
  8
0
  6
CONTINUOUS
 62
0
 10
-3.08804631333631
 20
0.596312062012086
 30
0.0
 40
0.383345790299279
 50
173.72316773514
 51
248.204345329002
  0
ARC
  8
0
  6
CONTINUOUS
 62
0
 10
-3.82118361575258
 20
0.864825146467021
 30
0.0
 40
0.451397291152027
 50
18.9945073446782
 51
177.459486204209
  0
ARC
  8
0
  6
CONTINUOUS
 62
0
 10
-3.0062296203705
 20
0.569786161502812
 30
0.0
 40
0.467896604260381
 50
149.091385157868
 51
171.589322525313
  0
ARC
  8
0
  6
CONTINUOUS
 62
0
 10
-3.69285563441619
 20
0.930209800713067
 30
0.0
 40
0.309426265467699
 50
337.165534274753
 51
15.2780703109208
  0
ARC
  8
0
  6
CONTINUOUS
 62
0
 10
3.24276820287438
 20
6.52655755516471
 30
0.0
 40
0.119024300325005
 50
308.135481260354
 51
119.244653791604
  0
ARC
  8
0
  6
CONTINUOUS
 62
0
 10
6.78725649224174
 20
1.41761566262015
 30
0.0
 40
6.09928051093592
 50
131.7360637839
 51
159.83688161116
  0
ARC
  8
0
  6
CONTINUOUS
 62
0
 10
1.58540287629778
 20
4.86137492124206
 30
0.0
 40
1.59060765115169
 50
330.157418681133
 51
44.1359989262861
  0
ARC
  8
0
  6
CONTINUOUS
 62
0
 10
1.47384558099036
 20
4.76259588894118
 30
0.0
 40
1.64429097673213
 50
285.317603484513
 51
335.083412896714
  0
ARC
  8
0
  6
CONTINUOUS
 62
0
 10
1.70929627611336
 20
3.9819115375297
 30
0.0
 40
0.829402759818055
 50
234.462979484159
 51
283.876861429023
  0
ARC
  8
0
  6
CONTINUOUS
 62
0
 10
1.18421935543711
 20
3.20086679180125
 30
0.0
 40
0.11450839090635
 50
67.941433355971
 51
222.187671995712
  0
ARC
  8
0
  6
CONTINUOUS
 62
0
 10
1.9899084256201
 20
4.32637690773158
 30
0.0
 40
1.49627516008571
 50
233.475444673175
 51
281.466939908517
  0
ARC
  8
0
  6
CONTINUOUS
 62
0
 10
1.90729558149175
 20
4.77318136504684
 30
0.0
 40
1.95060069415367
 50
281.236006293642
 51
27.2969391631785
  0
ARC
  8
0
  6
CONTINUOUS
 62
0
 10
1.89675666236378
 20
4.50119856880849
 30
0.0
 40
2.09811080771962
 50
33.779052466609
 51
56.2881967810427
  0
ARC
  8
0
  6
CONTINUOUS
 62
0
 10
1.38185083320596
 20
-1.12670041126951
 30
0.0
 40
7.73001486248207
 50
87.246640755712
 51
117.441436346532
  0
ARC
  8
0
  6
CONTINUOUS
 62
0
 10
-2.91428197540317
 20
3.19708241342254
 30
0.0
 40
0.949409847432626
 50
200.789720337591
 51
269.717834015293
  0
ARC
  8
0
  6
CONTINUOUS
 62
0
 10
-3.01008863114642
 20
5.16609541423868
 30
0.0
 40
2.91983383051931
 50
271.78855213733
 51
326.516037898811
  0
ARC
  8
0
  6
CONTINUOUS
 62
0
 10
-3.89143483769505
 20
6.23028483661231
 30
0.0
 40
4.26097185066831
 50
321.11141665632
 51
351.718409473637
  0
ARC
  8
0
  6
CONTINUOUS
 62
0
 10
-4.90907102686432
 20
7.35750063161111
 30
0.0
 40
5.25926818320108
 50
302.526726107931
 51
340.480549491084
  0
LINE
  8
0
  6
CONTINUOUS
 62
0
 10
0.0479371135563404
 20
5.60023795385527
 30
0.0
 11
0.0750632142229328
 21
5.69296158238574
 31
0.0
  0
ARC
  8
0
  6
CONTINUOUS
 62
0
 10
0.193599645609478
 20
5.63353640001345
 30
0.0
 40
0.1325980311537
 50
352.636398308488
 51
153.374283836972
  0
ARC
  8
0
  6
CONTINUOUS
 62
0
 10
-3.00657467220444
 20
4.48265222031644
 30
0.0
 40
1.81334450918673
 50
266.948788380181
 51
300.684748006113
  0
ARC
  8
0
  6
CONTINUOUS
 62
0
 10
-1.38572673579266
 20
3.25842099042468
 30
0.0
 40
2.15546586572456
 50
134.55479461738
 51
181.842386409916
  0
ARC
  8
0
  6
CONTINUOUS
 62
0
 10
1.1029060271947
 20
0.33353462024963
 30
0.0
 40
5.9921692597629
 50
76.6653538525769
 51
76.7089010469426
  0
ARC
  8
0
  6
CONTINUOUS
 62
0
 10
7.13037724243153
 20
-0.107198666821227
 30
0.0
 40
7.80796941077635
 50
126.550425436605
 51
148.473760724172
  0
ARC
  8
0
  6
CONTINUOUS
 62
0
 10
1.10290602718936
 20
0.333534620229693
 30
0.0
 40
5.99216925978353
 50
76.7089010469366
 51
131.888729901539
  0
ARC
  8
0
  6
CONTINUOUS
 62
0
 10
1.1815801029715
 20
1.1912192478759
 30
0.0
 40
0.114557697676669
 50
147.463728037677
 51
308.691182761169
  0
ARC
  8
0
  6
CONTINUOUS
 62
0
 10
4.12877743770714
 20
-0.73233790202418
 30
0.0
 40
3.6339329420617
 50
111.571602105492
 51
146.887347423023
  0
ARC
  8
0
  6
CONTINUOUS
 62
0
 10
3.14350884939572
 20
2.0582260815969
 30
0.0
 40
0.688165877318984
 50
0.28679721525375
 51
51.9187451321242
  0
ARC
  8
0
  6
CONTINUOUS
 62
0
 10
2.12719896233007
 20
2.08952796648559
 30
0.0
 40
1.70469477281047
 50
316.980348514397
 51
359.063660114306
  0
ARC
  8
0
  6
CONTINUOUS
 62
0
 10
1.83670498901605
 20
0.44783619943963
 30
0.0
 40
0.531403890237179
 50
190.104054823943
 51
238.402921448364
  0
ARC
  8
0
  6
CONTINUOUS
 62
0
 10
0.445658277868359
 20
3.14182733039254
 30
0.0
 40
3.67932364603668
 50
304.787144951927
 51
317.280350512254
  0
ARC
  8
0
  6
CONTINUOUS
 62
0
 10
4.91064500450967
 20
-0.179798281125321
 30
0.0
 40
3.2322016641745
 50
133.812885072929
 51
167.80029649645
  0
ARC
  8
0
  6
CONTINUOUS
 62
0
 10
3.14316933156688
 20
2.10172039267034
 30
0.0
 40
0.326853232089743
 50
355.140711971019
 51
43.1623738152872
  0
ARC
  8
0
  6
CONTINUOUS
 62
0
 10
1.23474355695008
 20
2.35730843050223
 30
0.0
 40
2.25199169463295
 50
321.948025770704
 51
352.773687282505
  0
ARC
  8
0
  6
CONTINUOUS
 62
0
 10
0.979550119403492
 20
2.36480984910545
 30
0.0
 40
2.46222635756383
 50
300.447746248239
 51
325.473036513503
  0
ARC
  8
0
  6
CONTINUOUS
 62
0
 10
2.00562539025252
 20
0.427489406573058
 30
0.0
 40
0.265233380452773
 50
163.407611829662
 51
207.131845785433
  0
ARC
  8
0
  6
CONTINUOUS
 62
0
 10
1.99828401770851
 20
0.566773238826392
 30
0.0
 40
0.397274241549193
 50
257.792530531767
 51
259.113523424687
  0
ARC
  8
0
  6
CONTINUOUS
 62
0
 10
3.45680638353318
 20
1.48546881275908
 30
0.0
 40
0.565136012074748
 50
261.526754904577
 51
315.564232171254
  0
ARC
  8
0
  6
CONTINUOUS
 62
0
 10
-5.03329040475976
 20
9.99708687481222
 30
0.0
 40
12.5871401732049
 50
314.956061884809
 51
322.178815907551
  0
ARC
  8
0
  6
CONTINUOUS
 62
0
 10
5.25173644581556
 20
2.40967989935902
 30
0.0
 40
0.366318999192798
 50
86.7595068533513
 51
200.956410673905
  0
ARC
  8
0
  6
CONTINUOUS
 62
0
 10
5.31222616247527
 20
2.49634011474752
 30
0.0
 40
0.281894381225226
 50
322.135601196279
 51
98.1130348004415
  0
ARC
  8
0
  6
CONTINUOUS
 62
0
 10
5.61889268064098
 20
2.2822512078246
 30
0.0
 40
0.093608195923842
 50
153.980606416335
 51
262.905250832388
  0
ARC
  8
0
  6
CONTINUOUS
 62
0
 10
5.78793970413904
 20
3.10653463942786
 30
0.0
 40
0.934788350634169
 50
258.859938947602
 51
291.963799357029
  0
ARC
  8
0
  6
CONTINUOUS
 62
0
 10
5.24118722362281
 20
4.04984683227017
 30
0.0
 40
2.02003000404491
 50
296.343213449024
 51
318.39012537651
  0
ARC
  8
0
  6
CONTINUOUS
 62
0
 10
6.88641555330329
 20
2.50835651700607
 30
0.0
 40
0.241299805548537
 50
36.0320703341355
 51
123.986188524491
  0
ARC
  8
0
  6
CONTINUOUS
 62
0
 10
6.84106606845932
 20
2.54223462691633
 30
0.0
 40
0.263649613767272
 50
286.786751824858
 51
24.1970347087743
  0
ARC
  8
0
  6
CONTINUOUS
 62
0
 10
10.2949856113301
 20
-3.83365790478226
 30
0.0
 40
6.99330718169614
 50
118.881590127333
 51
134.306229275228
  0
ARC
  8
0
  6
CONTINUOUS
 62
0
 10
3.26444307748944
 20
1.95548498186367
 30
0.0
 40
1.31484989851606
 50
264.953836826604
 51
308.490716059064
  0
ARC
  8
0
  6
CONTINUOUS
 62
0
 10
-1.99602037244725
 20
7.58255909219047
 30
0.0
 40
9.0142765794035
 50
312.403974894711
 51
321.662656444115
  0
ARC
  8
0
  6
CONTINUOUS
 62
0
 10
5.53330608605976
 20
2.9410437592064
 30
0.0
 40
1.05493580591804
 50
244.221885872444
 51
288.643152688219
  0
ARC
  8
0
  6
CONTINUOUS
 62
0
 10
-7.22559331344183
 20
15.7363275181696
 30
0.0
 40
19.0212255420857
 50
307.416734664713
 51
313.511571525921
  0
ARC
  8
0
  6
CONTINUOUS
 62
0
 10
13.9294657668331
 20
-14.0960360322535
 30
0.0
 40
17.5766826315017
 50
123.095923692646
 51
124.459196394139
  0
ARC
  8
0
  6
CONTINUOUS
 62
0
 10
4.13026074961427
 20
0.141252643415455
 30
0.0
 40
0.294023287613416
 50
119.776944970022
 51
207.796291650006
  0
ARC
  8
0
  6
CONTINUOUS
 62
0
 10
4.02724366834317
 20
0.151895756093656
 30
0.0
 40
0.215651013382432
 50
223.247959459233
 51
335.530335663427
  0
ARC
  8
0
  6
CONTINUOUS
 62
0
 10
5.34587492901796
 20
-0.609250006760598
 30
0.0
 40
1.30805665822098
 50
132.71222796246
 51
149.095936474219
  0
ARC
  8
0
  6
CONTINUOUS
 62
0
 10
5.88743295170312
 20
-1.11052306315492
 30
0.0
 40
2.04454469767551
 50
114.626449736332
 51
134.334983337098
  0
ARC
  8
0
  6
CONTINUOUS
 62
0
 10
5.87311553751307
 20
0.295969329274515
 30
0.0
 40
0.3397298852222
 50
212.945672813363
 51
280.854484160841
  0
ARC
  8
0
  6
CONTINUOUS
 62
0
 10
5.44520420911803
 20
1.46580486692897
 30
0.0
 40
1.58190619145669
 50
288.11626021547
 51
320.869413431518
  0
ARC
  8
0
  6
CONTINUOUS
 62
0
 10
38.4541892013743
 20
-28.3858728307494
 30
0.0
 40
42.9255655167977
 50
134.220937025532
 51
137.765096353254
  0
ARC
  8
0
  6
CONTINUOUS
 62
0
 10
8.77269682593001
 20
2.10571293990024
 30
0.0
 40
0.372963048155912
 50
101.458235781269
 51
133.336398451018
  0
ARC
  8
0
  6
CONTINUOUS
 62
0
 10
8.72141977067536
 20
2.29808499053563
 30
0.0
 40
0.174654115108079
 50
54.864503850656
 51
97.5054454668197
  0
ARC
  8
0
  6
CONTINUOUS
 62
0
 10
8.6488520221535
 20
2.37264796345027
 30
0.0
 40
0.186060055579527
 50
323.116665082819
 51
21.525407302442
  0
ARC
  8
0
  6
CONTINUOUS
 62
0
 10
-75.405377279386
 20
55.8235072282521
 30
0.0
 40
99.7952827870755
 50
326.075478875344
 51
327.539090788461
  0
ARC
  8
0
  6
CONTINUOUS
 62
0
 10
7.45647563531983
 20
0.0934058453224872
 30
0.0
 40
0.0642998730050086
 50
147.734631954056
 51
262.035288947935
  0
LINE
  8
0
  6
CONTINUOUS
 62
0
 10
8.04932753148972
 20
0.0857374473429742
 30
0.0
 11
7.44756604171272
 21
0.029726234690699
 31
0.0
  0
ARC
  8
0
  6
CONTINUOUS
 62
0
 10
8.04839035996121
 20
0.193098357122571
 30
0.0
 40
0.107365000066021
 50
270.500131841162
 51
331.427381222982
  0
ARC
  8
0
  6
CONTINUOUS
 62
0
 10
23.6233425945509
 20
-11.559897583569
 30
0.0
 40
19.4056551816388
 50
136.242747673136
 51
142.914805809905
  0
ARC
  8
0
  6
CONTINUOUS
 62
0
 10
10.5010602691843
 20
1.97897378693048
 30
0.0
 40
0.562836178844954
 50
114.22451478623
 51
134.463115160033
  0
ARC
  8
0
  6
CONTINUOUS
 62
0
 10
10.368171578643
 20
2.29555767374184
 30
0.0
 40
0.219775926960233
 50
90.6284182227765
 51
116.496189338882
  0
ARC
  8
0
  6
CONTINUOUS
 62
0
 10
10.3644746574863
 20
2.47282608913115
 30
0.0
 40
0.0425137615227228
 50
9.93579589757348
 51
88.2659543142973
  0
ARC
  8
0
  6
CONTINUOUS
 62
0
 10
10.2839118804826
 20
2.45871376283045
 30
0.0
 40
0.124303240015751
 50
331.515306258015
 51
9.93579589757887
  0
ARC
  8
0
  6
CONTINUOUS
 62
0
 10
24.7293153418532
 20
-8.58349548543804
 30
0.0
 40
18.0596178974595
 50
142.54426638542
 51
146.549808943752
  0
ARC
  8
0
  6
CONTINUOUS
 62
0
 10
11.0753270220064
 20
0.550516319387704
 30
0.0
 40
1.63518190989772
 50
149.875599708467
 51
179.770695818912
  0
ARC
  8
0
  6
CONTINUOUS
 62
0
 10
14.9868855199318
 20
-2.81347463801563
 30
0.0
 40
7.12700287857106
 50
133.214279213403
 51
139.011922662248
  0
ARC
  8
0
  6
CONTINUOUS
 62
0
 10
10.0313435041844
 20
0.539408269432486
 30
0.0
 40
0.591448777046507
 50
178.289712175204
 51
232.516493897183
  0
ARC
  8
0
  6
CONTINUOUS
 62
0
 10
9.94503243002652
 20
0.408450425600292
 30
0.0
 40
0.435151056057297
 50
231.041395108704
 51
308.958604891293
  0
ARC
  8
0
  6
CONTINUOUS
 62
0
 10
7.63523777681821
 20
3.89924427696417
 30
0.0
 40
4.61914252811101
 50
304.006104185868
 51
322.838580381126
  0
ARC
  8
0
  6
CONTINUOUS
 62
0
 10
11.32769879853
 20
1.09945153388478
 30
0.0
 40
0.014786488297677
 50
32.3860066076955
 51
139.813678653524
  0
ARC
  8
0
  6
CONTINUOUS
 62
0
 10
6.34603492876101
 20
0.560692173982917
 30
0.0
 40
0.881262306719506
 50
158.896207847136
 51
210.666776271407
  0
ARC
  8
0
  6
CONTINUOUS
 62
0
 10
5.8037486147103
 20
-0.796003931333868
 30
0.0
 40
1.72463853496203
 50
100.370521499213
 51
116.453550373863
  0
ARC
  8
0
  6
CONTINUOUS
 62
0
 10
5.50269763084933
 20
0.881212718571432
 30
0.0
 40
0.0214240420627702
 50
351.370624856724
 51
116.044115686312
  0
ARC
  8
0
  6
CONTINUOUS
 62
0
 10
5.80461648361328
 20
0.30226256135298
 30
0.0
 40
0.953958371518169
 50
82.5442407269342
 51
114.421317539754
  0
ARC
  8
0
  6
CONTINUOUS
 62
0
 10
5.80721778698175
 20
0.88291377049022
 30
0.0
 40
0.384821181960731
 50
10.1938710301609
 51
71.6444811103724
  0
ARC
  8
0
  6
CONTINUOUS
 62
0
 10
5.27250419185825
 20
0.891430754672134
 30
0.0
 40
0.915401726615792
 50
322.352483018695
 51
3.73233194854183
  0
ARC
  8
0
  6
CONTINUOUS
 62
0
 10
6.02518443406645
 20
0.311072542530769
 30
0.0
 40
0.0350426289876374
 50
142.713235573451
 51
299.832162689896
  0
ARC
  8
0
  6
CONTINUOUS
 62
0
 10
1.09081850073032
 20
6.68354184818312
 30
0.0
 40
8.09425899744351
 50
307.717358214226
 51
321.373726312163
  0
ARC
  8
0
  6
CONTINUOUS
 62
0
 10
11.6697166391204
 20
-1.64633681710015
 30
0.0
 40
5.3710260435878
 50
128.339440726875
 51
142.399598703982
  0
ARC
  8
0
  6
CONTINUOUS
 62
0
 10
8.82845358110714
 20
1.90040209091933
 30
0.0
 40
0.827142093110456
 50
90.4370310055839
 51
126.369476317238
  0
ARC
  8
0
  6
CONTINUOUS
 62
0
 10
8.79208756348452
 20
2.33502169607418
 30
0.0
 40
0.393647601939886
 50
14.8345040228777
 51
85.6209212150532
  0
ARC
  8
0
  6
CONTINUOUS
 62
0
 10
12.8962894064799
 20
-1.2675777697613
 30
0.0
 40
4.80172580129319
 50
124.221626924881
 51
141.537150702875
  0
ARC
  8
0
  6
CONTINUOUS
 62
0
 10
7.97223070001522
 20
2.17153899689116
 30
0.0
 40
1.22912933592488
 50
337.835568266522
 51
12.4157505445368
  0
ARC
  8
0
  6
CONTINUOUS
 62
0
 10
9.1165958303982
 20
1.70462697815941
 30
0.0
 40
0.00685665409717876
 50
152.147828355258
 51
306.387958245353
  0
ARC
  8
0
  6
CONTINUOUS
 62
0
 10
9.0212633062238
 20
1.79389868905929
 30
0.0
 40
0.137352917974385
 50
316.359556395993
 51
327.019224612426
  0
ARC
  8
0
  6
CONTINUOUS
 62
0
 10
10.2939754289536
 20
0.469730158511149
 30
0.0
 40
0.398960398677113
 50
142.565689771832
 51
187.820259743492
  0
ARC
  8
0
  6
CONTINUOUS
 62
0
 10
10.4074348698896
 20
2.45461847279025
 30
0.0
 40
0.326164685039036
 50
26.2068969317006
 51
130.450942263461
  0
ARC
  8
0
  6
CONTINUOUS
 62
0
 10
9.91048657465396
 20
2.21903787192075
 30
0.0
 40
0.876102345711066
 50
327.094757077011
 51
25.6774814189804
  0
LINE
  8
0
  6
CONTINUOUS
 62
0
 10
9.97718061901808
 20
0.712238814254609
 30
0.0
 11
10.646035958724
 21
1.74309415281661
 31
0.0
  0
ARC
  8
0
  6
CONTINUOUS
 62
0
 10
5.8436715537275
 20
6.1678812634434
 30
0.0
 40
7.17395324204638
 50
306.595849192092
 51
319.777347554817
  0
ARC
  8
0
  6
CONTINUOUS
 62
0
 10
9.95751664186403
 20
0.575944326654275
 30
0.0
 40
0.233917053591336
 50
272.103287552873
 51
314.182314581714
  0
ARC
  8
0
  6
CONTINUOUS
 62
0
 10
10.0073275389563
 20
0.44771204603448
 30
0.0
 40
0.113294131981722
 50
196.547221676403
 51
248.661095835813
  0
ARC
  8
0
  6
CONTINUOUS
 62
0
 10
14.8394675115598
 20
-1.33803901526173
 30
0.0
 40
4.54239451325453
 50
117.175645567302
 51
140.761827467759
  0
ARC
  8
0
  6
CONTINUOUS
 62
0
 10
13.2547607138125
 20
1.62773228700282
 30
0.0
 40
1.1815382106214
 50
81.0167290236062
 51
114.495679363174
  0
ARC
  8
0
  6
CONTINUOUS
 62
0
 10
13.3591813969713
 20
2.28818966132783
 30
0.0
 40
0.512877143982764
 50
23.5703198271709
 51
54.2808505822094
  0
ARC
  8
0
  6
CONTINUOUS
 62
0
 10
13.7316040610324
 20
2.46495696987392
 30
0.0
 40
0.101687997797995
 50
350.982574559176
 51
16.1700941908179
  0
ARC
  8
0
  6
CONTINUOUS
 62
0
 10
13.8483289362831
 20
2.44679753269769
 30
0.0
 40
0.0164443962680012
 50
172.236488302551
 51
340.364206782549
  0
ARC
  8
0
  6
CONTINUOUS
 62
0
 10
16.1469335134305
 20
1.04734205676514
 30
0.0
 40
2.67500658388674
 50
140.984117643701
 51
148.594346037955
  0
ARC
  8
0
  6
CONTINUOUS
 62
0
 10
14.1134191100021
 20
2.69985323604845
 30
0.0
 40
0.0548396500995954
 50
86.7452253707604
 51
144.940700580849
  0
ARC
  8
0
  6
CONTINUOUS
 62
0
 10
14.6882724394747
 20
-2.2996048753384
 30
0.0
 40
5.08644453571453
 50
89.3561034672027
 51
96.4539487639795
  0
ARC
  8
0
  6
CONTINUOUS
 62
0
 10
14.728606882845
 20
2.73229699453365
 30
0.0
 40
0.0567723154163579
 50
319.099252634989
 51
72.7594599347032
  0
ARC
  8
0
  6
CONTINUOUS
 62
0
 10
37.1158120438878
 20
-12.620719610289
 30
0.0
 40
27.0895290354781
 50
145.571401355552
 51
149.227831683792
  0
ARC
  8
0
  6
CONTINUOUS
 62
0
 10
16.4174565557896
 20
-0.581479089843083
 30
0.0
 40
3.15531450122741
 50
144.763776498939
 51
160.583187930769
  0
ARC
  8
0
  6
CONTINUOUS
 62
0
 10
13.5156104587276
 20
0.446990340700837
 30
0.0
 40
0.0767908090565679
 50
164.534690473191
 51
272.759223975106
  0
ARC
  8
0
  6
CONTINUOUS
 62
0
 10
13.5456190253292
 20
0.517783885099923
 30
0.0
 40
0.149823861025374
 50
259.885309183384
 51
313.464214847001
  0
ARC
  8
0
  6
CONTINUOUS
 62
0
 10
46.0208729055016
 20
-28.3233783754996
 30
0.0
 40
42.9255655167976
 50
134.220937025533
 51
137.765096353254
  0
ARC
  8
0
  6
CONTINUOUS
 62
0
 10
16.3393805300574
 20
2.16820739514991
 30
0.0
 40
0.372963048155937
 50
101.45823578127
 51
133.336398451019
  0
ARC
  8
0
  6
CONTINUOUS
 62
0
 10
16.2881034748028
 20
2.36057944578527
 30
0.0
 40
0.174654115108135
 50
54.8645038506595
 51
97.505445466823
  0
ARC
  8
0
  6
CONTINUOUS
 62
0
 10
16.2155357262809
 20
2.43514241869994
 30
0.0
 40
0.186060055579532
 50
323.116665082826
 51
21.5254073024488
  0
ARC
  8
0
  6
CONTINUOUS
 62
0
 10
-67.8386935752584
 20
55.8860016835043
 30
0.0
 40
99.7952827870767
 50
326.075478875343
 51
327.53909078846
  0
ARC
  8
0
  6
CONTINUOUS
 62
0
 10
15.0231593394472
 20
0.155900300572178
 30
0.0
 40
0.0642998730050105
 50
147.73463195406
 51
262.035288947938
  0
LINE
  8
0
  6
CONTINUOUS
 62
0
 10
15.6160112356171
 20
0.148231902592662
 30
0.0
 11
15.0142497458401
 21
0.0922206899403877
 31
0.0
  0
ARC
  8
0
  6
CONTINUOUS
 62
0
 10
15.6150740640886
 20
0.255592812372267
 30
0.0
 40
0.107365000066029
 50
270.50013184116
 51
331.42738122298
  0
ARC
  8
0
  6
CONTINUOUS
 62
0
 10
31.1900262986784
 20
-11.4974031283197
 30
0.0
 40
19.4056551816391
 50
136.242747673135
 51
142.914805809904
  0
ARC
  8
0
  6
CONTINUOUS
 62
0
 10
18.0677439733117
 20
2.0414682421802
 30
0.0
 40
0.562836178844915
 50
114.224514786231
 51
134.463115160034
  0
ARC
  8
0
  6
CONTINUOUS
 62
0
 10
32.2959990459805
 20
-8.52100103018814
 30
0.0
 40
18.0596178974593
 50
142.544266385421
 51
146.549808943752
  0
ARC
  8
0
  6
CONTINUOUS
 62
0
 10
18.6420107261339
 20
0.613010774637353
 30
0.0
 40
1.63518190989775
 50
149.875599708466
 51
179.770695818911
  0
ARC
  8
0
  6
CONTINUOUS
 62
0
 10
22.5535692240592
 20
-2.75098018276587
 30
0.0
 40
7.12700287857099
 50
133.214279213403
 51
139.011922662248
  0
ARC
  8
0
  6
CONTINUOUS
 62
0
 10
17.5980272083118
 20
0.601902724682146
 30
0.0
 40
0.591448777046489
 50
178.289712175202
 51
232.516493897182
  0
ARC
  8
0
  6
CONTINUOUS
 62
0
 10
17.5117161341539
 20
0.470944880849988
 30
0.0
 40
0.435151056057307
 50
231.041395108704
 51
308.958604891293
  0
ARC
  8
0
  6
CONTINUOUS
 62
0
 10
19.2364003432478
 20
-1.58384236185052
 30
0.0
 40
5.37102604358786
 50
128.339440726875
 51
142.399598703982
  0
ARC
  8
0
  6
CONTINUOUS
 62
0
 10
16.3951372852345
 20
1.96289654616909
 30
0.0
 40
0.827142093110377
 50
90.4370310055854
 51
126.36947631724
  0
ARC
  8
0
  6
CONTINUOUS
 62
0
 10
16.3587712676119
 20
2.39751615132381
 30
0.0
 40
0.393647601939946
 50
14.8345040228861
 51
85.6209212150617
  0
ARC
  8
0
  6
CONTINUOUS
 62
0
 10
20.4629731106072
 20
-1.2050833145115
 30
0.0
 40
4.80172580129311
 50
124.221626924882
 51
141.537150702876
  0
ARC
  8
0
  6
CONTINUOUS
 62
0
 10
15.5389144041427
 20
2.23403345214093
 30
0.0
 40
1.22912933592489
 50
337.83556826652
 51
12.4157505445335
  0
ARC
  8
0
  6
CONTINUOUS
 62
0
 10
16.6832795345256
 20
1.7671214334091
 30
0.0
 40
0.00685665409718757
 50
152.147828355277
 51
306.387958245372
  0
ARC
  8
0
  6
CONTINUOUS
 62
0
 10
16.5879470103512
 20
1.85639314430864
 30
0.0
 40
0.137352917974186
 50
316.359556396106
 51
327.019224612539
  0
ARC
  8
0
  6
CONTINUOUS
 62
0
 10
17.9741185740169
 20
2.51711292803991
 30
0.0
 40
0.326164685039079
 50
26.206896931702
 51
130.450942263462
  0
ARC
  8
0
  6
CONTINUOUS
 62
0
 10
17.4771702787814
 20
2.28153232717041
 30
0.0
 40
0.876102345711067
 50
327.094757077012
 51
25.6774814189817
  0
ARC
  8
0
  6
CONTINUOUS
 62
0
 10
9.66201256895393
 20
5.87819710339859
 30
0.0
 40
6.76795456639544
 50
306.089694153288
 51
321.80491030306
  0
ARC
  8
0
  6
CONTINUOUS
 62
0
 10
14.5997377519738
 20
1.31493072334253
 30
0.0
 40
3.26615408645694
 50
183.643516857978
 51
196.648778614114
  0
ARC
  8
0
  6
CONTINUOUS
 62
0
 10
12.0948228086692
 20
0.638043671749225
 30
0.0
 40
0.675864263612082
 50
202.521796698921
 51
228.069546162963
  0
ARC
  8
0
  6
CONTINUOUS
 62
0
 10
11.0179363073852
 20
2.40625841941949
 30
0.0
 40
2.64558777775755
 50
302.964483959658
 51
316.606218720898
  0
ARC
  8
0
  6
CONTINUOUS
 62
0
 10
12.9565970224648
 20
0.57039658662595
 30
0.0
 40
0.0244861675815949
 50
355.303197234966
 51
131.566700410874
  0
ARC
  8
0
  6
CONTINUOUS
 62
0
 10
13.5896747647185
 20
0.53276915810106
 30
0.0
 40
0.609715304598397
 50
176.65060425649
 51
218.543091120731
  0
ARC
  8
0
  6
CONTINUOUS
 62
0
 10
13.4394495431325
 20
0.48935595661323
 30
0.0
 40
0.468976332956252
 50
225.85051937206
 51
277.883694355816
  0
ARC
  8
0
  6
CONTINUOUS
 62
0
 10
10.125097072751
 20
3.53538878058926
 30
0.0
 40
3.73852705015099
 50
302.567902249814
 51
332.481438238158
  0
ARC
  8
0
  6
CONTINUOUS
 62
0
 10
12.6831158804598
 20
2.25935603467255
 30
0.0
 40
0.881778408068731
 50
329.215672482487
 51
5.18517279300378
  0
ARC
  8
0
  6
CONTINUOUS
 62
0
 10
13.3116592230321
 20
2.3010407712711
 30
0.0
 40
0.252503305904394
 50
8.65684785369152
 51
42.4833153570804
  0
ARC
  8
0
  6
CONTINUOUS
 62
0
 10
13.902126504937
 20
0.880581759126002
 30
0.0
 40
1.80465531157376
 50
122.144262622114
 51
142.876742114404
  0
ARC
  8
0
  6
CONTINUOUS
 62
0
 10
18.18434696173
 20
4.32547692425902
 30
0.0
 40
0.28533089402149
 50
18.1899171143304
 51
105.180383008971
  0
ARC
  8
0
  6
CONTINUOUS
 62
0
 10
18.3455650065774
 20
4.04690722531906
 30
0.0
 40
0.602095809927184
 50
113.069991427517
 51
177.539701510015
  0
ARC
  8
0
  6
CONTINUOUS
 62
0
 10
16.5726533290243
 20
4.27586776888511
 30
0.0
 40
1.10755721421433
 50
299.209370173029
 51
321.156695803659
  0
ARC
  8
0
  6
CONTINUOUS
 62
0
 10
16.6397807227532
 20
4.42360129010367
 30
0.0
 40
1.15864052509487
 50
313.360659328761
 51
342.373548951276
  0
ARC
  8
0
  6
CONTINUOUS
 62
0
 10
17.5158205632112
 20
2.58544097385429
 30
0.0
 40
0.828188385861598
 50
119.09202963382
 51
141.247130449601
  0
ARC
  8
0
  6
CONTINUOUS
 62
0
 10
16.9530247887627
 20
3.05140616737876
 30
0.0
 40
0.0982421442347478
 50
147.731882578939
 51
231.645690541789
  0
ARC
  8
0
  6
CONTINUOUS
 62
0
 10
17.0025444928257
 20
3.13970325960223
 30
0.0
 40
0.198853124095054
 50
236.248509580453
 51
289.50145772174
  0
ARC
  8
0
  6
CONTINUOUS
 62
0
 10
16.6959519742366
 20
4.24835487788243
 30
0.0
 40
1.34869520221631
 50
286.054147469138
 51
302.444261351661
  0
ARC
  8
0
  6
CONTINUOUS
 62
0
 10
15.5948617413397
 20
6.01742788443013
 30
0.0
 40
3.43240925530197
 50
302.112992995534
 51
309.257447495886
  0
ARC
  8
0
  6
CONTINUOUS
 62
0
 10
16.2304438004307
 20
5.7583458402797
 30
0.0
 40
2.84856802148199
 50
302.641596286885
 51
312.169116975931
  0
ARC
  8
0
  6
CONTINUOUS
 62
0
 10
17.2720098621249
 20
4.64359056112337
 30
0.0
 40
1.32333404944162
 50
311.146611260121
 51
333.413966907864
  0
ARC
  8
0
  6
CONTINUOUS
 62
0
 10
17.7684328764355
 20
4.23294609929042
 30
0.0
 40
0.710583713694097
 50
345.192800103156
 51
14.8071998968438
  0
ARC
  8
0
  6
CONTINUOUS
 62
0
 10
25.5102302172767
 20
-3.24996188640163
 30
0.0
 40
8.87762643357241
 50
145.286657211366
 51
154.475046308963
  0
ARC
  8
0
  6
CONTINUOUS
 62
0
 10
10.0562595793289
 20
8.66968930102405
 30
0.0
 40
11.2548904171411
 50
312.392632619738
 51
322.022542939072
  0
ARC
  8
0
  6
CONTINUOUS
 62
0
 10
17.7416131106292
 20
0.444631977615044
 30
0.0
 40
0.275561050272886
 50
151.659375665439
 51
182.683802391543
  0
ARC
  8
0
  6
CONTINUOUS
 62
0
 10
17.5751511595709
 20
0.442030209375095
 30
0.0
 40
0.109283428617023
 50
185.408763108288
 51
309.31429936285
  0
ARC
  8
0
  6
CONTINUOUS
 62
0
 10
31.0314933940308
 20
-8.70153049477309
 30
0.0
 40
15.9876248541892
 50
134.690791668332
 51
139.205378344697
  0
ARC
  8
0
  6
CONTINUOUS
 62
0
 10
19.5960200463282
 20
2.97669478785532
 30
0.0
 40
0.36654158770803
 50
301.531497558527
 51
324.851332136273
  0
ARC
  8
0
  6
CONTINUOUS
 62
0
 10
21.0372940855712
 20
2.35807033392929
 30
0.0
 40
1.21215464217532
 50
146.416156576823
 51
160.350455257446
  0
ARC
  8
0
  6
CONTINUOUS
 62
0
 10
20.4638241375283
 20
2.614546954279
 30
0.0
 40
0.601518771024577
 50
109.593175643364
 51
136.503074096587
  0
ARC
  8
0
  6
CONTINUOUS
 62
0
 10
20.0194297308972
 20
2.95279814152785
 30
0.0
 40
0.449076808644351
 50
350.875204252814
 51
18.2726382669839
  0
ARC
  8
0
  6
CONTINUOUS
 62
0
 10
20.3019997472842
 20
3.02841404229539
 30
0.0
 40
0.157942123534099
 50
24.3763449288641
 51
104.628552084459
  0
ARC
  8
0
  6
CONTINUOUS
 62
0
 10
20.2449252479024
 20
2.9481262778491
 30
0.0
 40
0.227833153404972
 50
282.963321953764
 51
343.017570420195
  0
ARC
  8
0
  6
CONTINUOUS
 62
0
 10
20.6584569407079
 20
2.05760332651107
 30
0.0
 40
0.760419283874382
 50
118.464149138701
 51
129.528769157799
  0
ARC
  8
0
  6
CONTINUOUS
 62
0
 10
20.5051909478099
 20
2.40127271640102
 30
0.0
 40
0.410300308644312
 50
143.709929064796
 51
170.119803589588
  0
ARC
  8
0
  6
CONTINUOUS
 62
0
 10
13.9126674694592
 20
5.43504622509524
 30
0.0
 40
6.56610141045107
 50
306.142461254009
 51
325.686334592633
  0
ARC
  8
0
  6
CONTINUOUS
 62
0
 10
22.6889418233664
 20
-0.712488241324009
 30
0.0
 40
4.15033546325695
 50
135.995679488346
 51
143.887883007343
  0
ARC
  8
0
  6
CONTINUOUS
 62
0
 10
19.8656719195548
 20
2.30803293027146
 30
0.0
 40
0.0264428360264334
 50
2.07684195103544
 51
137.956945005163
  0
ARC
  8
0
  6
CONTINUOUS
 62
0
 10
18.3952607964209
 20
3.51599877294957
 30
0.0
 40
1.87655443628894
 50
314.205480983215
 51
320.633537450097
  0
ARC
  8
0
  6
CONTINUOUS
 62
0
 10
17.7603760357963
 20
2.00154101170613
 30
0.0
 40
2.15377843355006
 50
358.152696823257
 51
8.2069634164694
  0
ARC
  8
0
  6
CONTINUOUS
 62
0
 10
18.2211515710851
 20
1.91766028511478
 30
0.0
 40
1.69194527205994
 50
340.999149707563
 51
0.489394803332153
  0
ARC
  8
0
  6
CONTINUOUS
 62
0
 10
18.0898771793152
 20
1.69967514677667
 30
0.0
 40
1.76274840366307
 50
315.565804949939
 51
349.114748968261
  0
ARC
  8
0
  6
CONTINUOUS
 62
0
 10
19.0902605626175
 20
0.670611253598976
 30
0.0
 40
0.329787010791375
 50
270.628879107831
 51
321.561969206943
  0
ARC
  8
0
  6
CONTINUOUS
 62
0
 10
19.1102707323102
 20
0.411813017207552
 30
0.0
 40
0.0728370405707391
 50
142.24489099428
 51
256.995376078139
  0
ARC
  8
0
  6
CONTINUOUS
 62
0
 10
18.7523970209196
 20
0.685333695344278
 30
0.0
 40
0.377594685559291
 50
322.679882682489
 51
13.196236320749
  0
ARC
  8
0
  6
CONTINUOUS
 62
0
 10
18.9086273306396
 20
0.711541571142392
 30
0.0
 40
0.219741413719347
 50
15.8435794371769
 51
111.768000790322
  0
ARC
  8
0
  6
CONTINUOUS
 62
0
 10
18.9219842458671
 20
0.576317840701066
 30
0.0
 40
0.352303750154452
 50
105.617964454245
 51
180.134639768893
  0
ARC
  8
0
  6
CONTINUOUS
 62
0
 10
19.2117397010998
 20
0.612633549695072
 30
0.0
 40
0.643131728625968
 50
183.310917027346
 51
219.918640858223
  0
ARC
  8
0
  6
CONTINUOUS
 62
0
 10
19.1369277093131
 20
0.645972700698751
 30
0.0
 40
0.611589786084666
 50
226.828267020188
 51
277.286838801491
  0
ARC
  8
0
  6
CONTINUOUS
 62
0
 10
18.9543873740526
 20
1.81138985199397
 30
0.0
 40
1.79105602162862
 50
278.350512091152
 51
329.299669778791
  0
ARC
  8
0
  6
CONTINUOUS
 62
0
 10
23.3790295994912
 20
2.78448370491036
 30
0.0
 40
3.29294469944413
 50
185.450942046525
 51
196.732165140615
  0
ARC
  8
0
  6
CONTINUOUS
 62
0
 10
17.9524742967371
 20
1.20945536415316
 30
0.0
 40
2.35792093127608
 50
3.69914099286642
 51
15.4210519689044
  0
ARC
  8
0
  6
CONTINUOUS
 62
0
 10
19.390820920035
 20
1.2770174649615
 30
0.0
 40
0.918562661848449
 50
348.358097035574
 51
5.2822427246997
  0
ARC
  8
0
  6
CONTINUOUS
 62
0
 10
20.3104604263733
 20
1.0897694349412
 30
0.0
 40
0.0200625508590425
 50
174.602032978987
 51
318.446475618485
  0
ARC
  8
0
  6
CONTINUOUS
 62
0
 10
29.5556907437176
 20
-6.39622757539619
 30
0.0
 40
11.8759414220598
 50
135.793231449473
 51
141.006722756544
  0
ARC
  8
0
  6
CONTINUOUS
 62
0
 10
13.949451347503
 20
8.72000907656501
 30
0.0
 40
9.85095059274224
 50
316.059046089175
 51
328.212405990595
  0
ARC
  8
0
  6
CONTINUOUS
 62
0
 10
-18.3321190733861
 20
27.8979450617724
 30
0.0
 40
47.3981223898702
 50
329.063016129945
 51
330.781021061497
  0
ARC
  8
0
  6
CONTINUOUS
 62
0
 10
30.7526399617172
 20
1.10853155799779
 30
0.0
 40
8.53805028896772
 50
149.244003957491
 51
154.675690086639
  0
ARC
  8
0
  6
CONTINUOUS
 62
0
 10
19.1086705916732
 20
8.07991549512305
 30
0.0
 40
5.0334071914177
 50
328.830215885731
 51
331.68002152038
  0
ARC
  8
0
  6
CONTINUOUS
 62
0
 10
23.6060534950918
 20
5.65867468846317
 30
0.0
 40
0.0743472734248753
 50
98.5900024484595
 51
153.290525559834
  0
ARC
  8
0
  6
CONTINUOUS
 62
0
 10
23.8210886323238
 20
4.00216062932723
 30
0.0
 40
1.74474463103488
 50
91.3404972908982
 51
97.4471723273208
  0
ARC
  8
0
  6
CONTINUOUS
 62
0
 10
22.6849220214559
 20
16.0228871084748
 30
0.0
 40
10.3346702189599
 50
276.08408744058
 51
278.16594525722
  0
ARC
  8
0
  6
CONTINUOUS
 62
0
 10
24.1727777619852
 20
5.72752881168613
 30
0.0
 40
0.0684342056024505
 50
343.083527897737
 51
106.916472102261
  0
ARC
  8
0
  6
CONTINUOUS
 62
0
 10
39.977801825236
 20
-4.61661357949335
 30
0.0
 40
18.8234742443967
 50
146.737456227267
 51
151.877258013553
  0
ARC
  8
0
  6
CONTINUOUS
 62
0
 10
4.05524478578179
 20
14.2402756950983
 30
0.0
 40
21.7485759727474
 50
325.46149021384
 51
332.672589674924
  0
ARC
  8
0
  6
CONTINUOUS
 62
0
 10
21.9948865921584
 20
1.90554997186442
 30
0.0
 40
0.024705878131028
 50
170.32372238932
 51
276.204868432823
  0
ARC
  8
0
  6
CONTINUOUS
 62
0
 10
22.1328033622195
 20
1.0838290494258
 30
0.0
 40
0.808551368582394
 50
67.404718245196
 51
99.6291343690088
  0
ARC
  8
0
  6
CONTINUOUS
 62
0
 10
22.4649774549309
 20
1.92586825223701
 30
0.0
 40
0.0979426063782162
 50
257.311546373732
 51
311.289008524638
  0
ARC
  8
0
  6
CONTINUOUS
 62
0
 10
23.701772891161
 20
0.55046970417984
 30
0.0
 40
1.75176292864672
 50
123.007885142874
 51
132.000399577664
  0
ARC
  8
0
  6
CONTINUOUS
 62
0
 10
24.8562739852951
 20
-2.47094327168977
 30
0.0
 40
5.51076767719389
 50
131.115547229608
 51
142.327197999428
  0
ARC
  8
0
  6
CONTINUOUS
 62
0
 10
21.2452741961521
 20
1.65983721213722
 30
0.0
 40
0.0245340252779802
 50
319.838943414057
 51
121.363645875951
  0
ARC
  8
0
  6
CONTINUOUS
 62
0
 10
28.9285980816948
 20
-3.84111736053747
 30
0.0
 40
9.42509234765658
 50
144.410698865639
 51
154.473594798128
  0
ARC
  8
0
  6
CONTINUOUS
 62
0
 10
20.4875525580301
 20
0.184178756251116
 30
0.0
 40
0.0735725985228654
 50
150.498292098639
 51
251.73133931365
  0
ARC
  8
0
  6
CONTINUOUS
 62
0
 10
20.4162276599451
 20
3.15417356539982
 30
0.0
 40
3.04024222099021
 50
270.909571435358
 51
280.674656875928
  0
ARC
  8
0
  6
CONTINUOUS
 62
0
 10
20.9596423303772
 20
0.337890671940312
 30
0.0
 40
0.172480194587503
 50
276.570237034996
 51
342.718112879292
  0
ARC
  8
0
  6
CONTINUOUS
 62
0
 10
27.5605798388612
 20
-2.6286545001278
 30
0.0
 40
7.06570911620374
 50
148.054998295025
 51
155.631782343669
  0
ARC
  8
0
  6
CONTINUOUS
 62
0
 10
22.927517245619
 20
0.528563123072037
 30
0.0
 40
1.481398890873
 50
140.811755659204
 51
156.896784455925
  0
ARC
  8
0
  6
CONTINUOUS
 62
0
 10
21.8117355228983
 20
1.45055050530752
 30
0.0
 40
0.0353322332334428
 50
27.0371586838626
 51
156.542662532629
  0
ARC
  8
0
  6
CONTINUOUS
 62
0
 10
22.0636887947779
 20
1.62807328154315
 30
0.0
 40
0.273280874029448
 50
216.215754434252
 51
282.041051426281
  0
ARC
  8
0
  6
CONTINUOUS
 62
0
 10
22.0869170331382
 20
2.01209518440307
 30
0.0
 40
0.652165670066849
 50
272.96919537855
 51
295.749477709936
  0
ARC
  8
0
  6
CONTINUOUS
 62
0
 10
22.3891462333444
 20
1.39500009784648
 30
0.0
 40
0.0351958921185596
 50
339.657393839109
 51
122.487518975306
  0
ARC
  8
0
  6
CONTINUOUS
 62
0
 10
24.0564439289031
 20
0.789072955534173
 30
0.0
 40
1.73879169838736
 50
160.035409303578
 51
185.249220799757
  0
ARC
  8
0
  6
CONTINUOUS
 62
0
 10
23.1381340558614
 20
0.803028397757753
 30
0.0
 40
0.8313953296423
 50
192.012494796541
 51
233.600132788394
  0
ARC
  8
0
  6
CONTINUOUS
 62
0
 10
22.9410624570027
 20
0.665455856976652
 30
0.0
 40
0.608606796585928
 50
240.867076864785
 51
299.132923135212
  0
ARC
  8
0
  6
CONTINUOUS
 62
0
 10
25.8130927681037
 20
-0.187094593997491
 30
0.0
 40
3.7771581798508
 50
130.777050409206
 51
144.254082185385
  0
ARC
  8
0
  6
CONTINUOUS
 62
0
 10
23.8739173800886
 20
2.04862595569099
 30
0.0
 40
0.817676477464763
 50
91.0215373659247
 51
130.197848509139
  0
ARC
  8
0
  6
CONTINUOUS
 62
0
 10
23.8303682597183
 20
2.36257827455071
 30
0.0
 40
0.504426862735768
 50
35.5193889870911
 51
86.7074474790863
  0
ARC
  8
0
  6
CONTINUOUS
 62
0
 10
23.9542680605764
 20
2.43402029920364
 30
0.0
 40
0.362340417024383
 50
314.94337933172
 51
37.7076216266194
  0
ARC
  8
0
  6
CONTINUOUS
 62
0
 10
23.9787889913472
 20
2.45719212044473
 30
0.0
 40
0.362989832886711
 50
240.116595435769
 51
309.612433439749
  0
ARC
  8
0
  6
CONTINUOUS
 62
0
 10
23.9928578635689
 20
2.4369791219097
 30
0.0
 40
0.353176736629548
 50
189.396951443695
 51
236.501478789487
  0
ARC
  8
0
  6
CONTINUOUS
 62
0
 10
23.5815791752087
 20
2.37321368045641
 30
0.0
 40
0.0631367538943537
 50
5.54527665585031
 51
88.6969161374691
  0
ARC
  8
0
  6
CONTINUOUS
 62
0
 10
23.5837833609238
 20
2.38641435152663
 30
0.0
 40
0.0499256681002064
 50
90.8818486736863
 51
151.261808896273
  0
ARC
  8
0
  6
CONTINUOUS
 62
0
 10
21.7789155900713
 20
3.3343251354276
 30
0.0
 40
1.98872982849701
 50
319.878424850088
 51
332.317541323399
  0
ARC
  8
0
  6
CONTINUOUS
 62
0
 10
22.0876845588883
 20
3.09343617096434
 30
0.0
 40
1.59745739457342
 50
296.594602127851
 51
319.348605394248
  0
ARC
  8
0
  6
CONTINUOUS
 62
0
 10
22.8122900690016
 20
1.64717532732282
 30
0.0
 40
0.0201773610222517
 50
117.972082427826
 51
230.000685436794
  0
ARC
  8
0
  6
CONTINUOUS
 62
0
 10
21.9850711321789
 20
0.765838409355372
 30
0.0
 40
1.18859169369473
 50
37.4573062921495
 51
46.7601545154052
  0
ARC
  8
0
  6
CONTINUOUS
 62
0
 10
22.4445575509203
 20
1.12249305065619
 30
0.0
 40
0.606952681203926
 50
359.864751125985
 51
37.1109579680626
  0
ARC
  8
0
  6
CONTINUOUS
 62
0
 10
21.8129222003497
 20
1.07377142564415
 30
0.0
 40
1.23948875056257
 50
335.440718105924
 51
2.18647537007813
  0
ARC
  8
0
  6
CONTINUOUS
 62
0
 10
23.1065984618976
 20
0.472670321094939
 30
0.0
 40
0.187206831175455
 50
152.677797653454
 51
174.731155829806
  0
ARC
  8
0
  6
CONTINUOUS
 62
0
 10
22.9828518289246
 20
0.477871118768248
 30
0.0
 40
0.0638059209322862
 50
169.168729624767
 51
248.808915417614
  0
ARC
  8
0
  6
CONTINUOUS
 62
0
 10
22.9820458804879
 20
0.625280146027843
 30
0.0
 40
0.208094253301287
 50
263.859669987742
 51
305.128065528809
  0
ARC
  8
0
  6
CONTINUOUS
 62
0
 10
24.371982342594
 20
1.10308770558553
 30
0.0
 40
0.0147864882977057
 50
32.3860066076957
 51
139.813678653524
  0
ARC
  8
0
  6
CONTINUOUS
 62
0
 10
27.8837510556238
 20
-1.33440284356067
 30
0.0
 40
4.54239451325431
 50
117.175645567305
 51
140.761827467762
  0
ARC
  8
0
  6
CONTINUOUS
 62
0
 10
26.2990442578764
 20
1.63136845870353
 30
0.0
 40
1.18153821062147
 50
81.0167290236058
 51
114.495679363174
  0
ARC
  8
0
  6
CONTINUOUS
 62
0
 10
26.4034649410353
 20
2.29182583302859
 30
0.0
 40
0.512877143982784
 50
23.5703198271724
 51
49.198261722598
  0
ARC
  8
0
  6
CONTINUOUS
 62
0
 10
26.8926124803471
 20
2.45043370439846
 30
0.0
 40
0.0164443962680511
 50
172.236488302586
 51
340.364206782585
  0
ARC
  8
0
  6
CONTINUOUS
 62
0
 10
29.1912170574946
 20
1.05097822846592
 30
0.0
 40
2.67500658388677
 50
140.984117643701
 51
148.594346037955
  0
ARC
  8
0
  6
CONTINUOUS
 62
0
 10
27.1577026540662
 20
2.70348940774928
 30
0.0
 40
0.0548396500995333
 50
86.7452253707929
 51
144.940700580882
  0
ARC
  8
0
  6
CONTINUOUS
 62
0
 10
27.7325559835387
 20
-2.29596870363824
 30
0.0
 40
5.08644453571515
 50
89.3561034672026
 51
96.4539487639794
  0
ARC
  8
0
  6
CONTINUOUS
 62
0
 10
27.772890426909
 20
2.73593316623444
 30
0.0
 40
0.0567723154163529
 50
319.099252634974
 51
72.7594599346878
  0
ARC
  8
0
  6
CONTINUOUS
 62
0
 10
27.6440212960378
 20
1.31856689504293
 30
0.0
 40
3.26615408645685
 50
183.643516857972
 51
196.648778614109
  0
ARC
  8
0
  6
CONTINUOUS
 62
0
 10
25.1391063527332
 20
0.641679843450001
 30
0.0
 40
0.675864263612078
 50
202.52179669892
 51
230.948041800114
  0
ARC
  8
0
  6
CONTINUOUS
 62
0
 10
24.0622198514491
 20
2.40989459112031
 30
0.0
 40
2.64558777775757
 50
302.964483959657
 51
316.606218720896
  0
ARC
  8
0
  6
CONTINUOUS
 62
0
 10
26.0008805665288
 20
0.574032758326712
 30
0.0
 40
0.0244861675816276
 50
355.303197235008
 51
131.566700410916
  0
ARC
  8
0
  6
CONTINUOUS
 62
0
 10
26.6339583087826
 20
0.536405329801832
 30
0.0
 40
0.609715304598399
 50
176.65060425649
 51
218.543091120731
  0
ARC
  8
0
  6
CONTINUOUS
 62
0
 10
25.7273994245237
 20
2.26299220637324
 30
0.0
 40
0.881778408068709
 50
329.215672482493
 51
5.18517279300958
  0
ARC
  8
0
  6
CONTINUOUS
 62
0
 10
26.3559427670961
 20
2.30467694297193
 30
0.0
 40
0.252503305904354
 50
8.65684785368144
 51
31.8761528246757
  0
ARC
  8
0
  6
CONTINUOUS
 62
0
 10
26.7830243677928
 20
2.46903918924335
 30
0.0
 40
0.0947221838473094
 50
350.039451249672
 51
17.1132175001695
  0
ARC
  8
0
  6
CONTINUOUS
 62
0
 10
20.373995135501
 20
4.55405920709837
 30
0.0
 40
5.26660679345789
 50
302.934649167088
 51
319.19826458131
  0
ARC
  8
0
  6
CONTINUOUS
 62
0
 10
19.4606312728279
 20
5.97968673594452
 30
0.0
 40
6.61658557711524
 50
303.388076153551
 51
317.84298067253
  0
ARC
  8
0
  6
CONTINUOUS
 62
0
 10
27.9677641024495
 20
1.4812726971726
 30
0.0
 40
0.0920296900926517
 50
325.383528878078
 51
132.436383832124
  0
ARC
  8
0
  6
CONTINUOUS
 62
0
 10
26.4320262017068
 20
1.81319272897311
 30
0.0
 40
0.746715708159956
 50
95.0750814457516
 51
126.65523126657
  0
ARC
  8
0
  6
CONTINUOUS
 62
0
 10
27.1475223370922
 20
0.664823132489245
 30
0.0
 40
2.09810530101644
 50
123.606903118517
 51
141.414101617993
  0
ARC
  8
0
  6
CONTINUOUS
 62
0
 10
27.6351846255417
 20
0.307152816952154
 30
0.0
 40
2.70248430722922
 50
141.934960802599
 51
155.580256824214
  0
ARC
  8
0
  6
CONTINUOUS
 62
0
 10
28.2613766725995
 20
-0.0319497289592958
 30
0.0
 40
3.41321376898606
 50
154.742789710623
 51
165.991377240442
  0
ARC
  8
0
  6
CONTINUOUS
 62
0
 10
16.5951619898654
 20
-0.774484604319472
 30
0.0
 40
4.96023066662699
 50
146.409938471106
 51
156.558611036962
  0
ARC
  8
0
  6
CONTINUOUS
 62
0
 10
12.4785171225588
 20
0.612581577189686
 30
0.0
 40
0.590442512739986
 50
162.65351115459
 51
190.531912311312
  0
ARC
  8
0
  6
CONTINUOUS
 62
0
 10
13.6603174531223
 20
0.463473518089679
 30
0.0
 40
1.77541664232561
 50
155.534691698838
 51
169.447343963623
  0
ARC
  8
0
  6
CONTINUOUS
 62
0
 10
13.2915306517361
 20
1.12130761713222
 30
0.0
 40
1.11684835644875
 50
280.955069877739
 51
328.030603769248
  0
ARC
  8
0
  6
CONTINUOUS
 62
0
 10
23.4145132987367
 20
3.32580449816372
 30
0.0
 40
3.42345294921706
 50
316.110157561812
 51
333.75076664596
  0
ARC
  8
0
  6
CONTINUOUS
 62
0
 10
23.5660942556995
 20
2.94543586407739
 30
0.0
 40
3.05519245132923
 50
306.768351033942
 51
319.281780944291
  0
ARC
  8
0
  6
CONTINUOUS
 62
0
 10
26.5824981854973
 20
0.468701545331401
 30
0.0
 40
0.0966444008592899
 50
178.576054466295
 51
258.717859981984
  0
ARC
  8
0
  6
CONTINUOUS
 62
0
 10
26.5852228772791
 20
0.537043282564019
 30
0.0
 40
0.164546698661256
 50
262.445702247501
 51
310.903821782885
  0
ARC
  8
0
  6
CONTINUOUS
 62
0
 10
28.3836409393318
 20
-0.020762403499816
 30
0.0
 40
1.96046283752877
 50
139.877300601397
 51
165.469663828308
  0
ARC
  8
0
  6
CONTINUOUS
 62
0
 10
19.8769363126851
 20
6.75009047354521
 30
0.0
 40
8.91284731055844
 50
321.835175890336
 51
332.964057149003
  0
ARC
  8
0
  6
CONTINUOUS
 62
0
 10
22.7314051442398
 20
5.85504114055854
 30
0.0
 40
6.73151496321079
 50
306.051319129461
 51
320.233892130184
  0
ARC
  8
0
  6
CONTINUOUS
 62
0
 10
-1.01988917813722
 20
3.18448457197482
 30
0.0
 40
2.80083408351512
 50
114.479464680752
 51
186.650766310316
  0
ARC
  8
0
  6
CONTINUOUS
 62
0
 10
-2.99656066410299
 20
3.20509188384104
 30
0.0
 40
0.543752223571606
 50
181.682964232806
 51
258.70112784113
  0
ARC
  8
0
  6
CONTINUOUS
 62
0
 10
1.86116645858707
 20
4.31558476519658
 30
0.0
 40
2.28136332632216
 50
65.5781362497256
 51
92.7131839203579
  0
ARC
  8
0
  6
CONTINUOUS
 62
0
 10
4.15471712863268
 20
0.960121690439045
 30
0.0
 40
2.90498155691917
 50
177.20445202092
 51
192.030922102575
  0
ARC
  8
0
  6
CONTINUOUS
 62
0
 10
21.2335968867288
 20
6.44056154532992
 30
0.0
 40
8.45521338579684
 50
315.683892625629
 51
323.649775651316
  0
ARC
  8
0
  6
CONTINUOUS
 62
0
 10
26.2434493321054
 20
1.25937150029222
 30
0.0
 40
1.26805324549995
 50
283.899434208667
 51
325.086239438322
  0
ARC
  8
0
  6
CONTINUOUS
 62
0
 10
26.490762227829
 20
0.514456075566955
 30
0.0
 40
0.489373564183133
 50
227.010480145855
 51
276.72373358202
  0
ARC
  8
0
  6
CONTINUOUS
 62
0
 10
25.0215525556346
 20
0.747805836640672
 30
0.0
 40
0.735847064990946
 50
259.865323150445
 51
310.734655278828
  0
LINE
  8
0
  6
CONTINUOUS
 62
0
 10
25.1150769762955
 20
0.344281097010519
 30
0.0
 11
24.8920710369754
 21
0.0234402939886822
 31
0.0
  0
ARC
  8
0
  6
CONTINUOUS
 62
0
 10
26.4034649410353
 20
2.29182583302853
 30
0.0
 40
0.512877143982842
 50
71.7937245829303
 51
81.0180727899112
  0
LINE
  8
0
  6
CONTINUOUS
 62
0
 10
24.9341626653859
 20
0.43458496258634
 30
0.0
 11
24.7132950508008
 21
0.116820588054276
 31
0.0
  0
LINE
  8
0
  6
CONTINUOUS
 62
0
 10
26.5637077445261
 20
2.77902723773648
 30
0.0
 11
26.406022648931
 21
2.55216416471889
 31
0.0
  0
ARC
  8
0
  6
CONTINUOUS
 62
0
 10
25.0757198089617
 20
0.491806489444331
 30
0.0
 40
0.152685061591818
 50
284.937603837324
 51
290.321959803432
  0
LINE
  8
0
  6
CONTINUOUS
 62
0
 10
26.7386012129237
 20
2.68006112777228
 30
0.0
 11
26.5703664424129
 21
2.43802013536001
 31
0.0
  0
ARC
  8
0
  6
CONTINUOUS
 62
0
 10
11.9772690115706
 20
0.744169664939899
 30
0.0
 40
0.73584706499095
 50
257.000144938375
 51
310.734655278828
  0
LINE
  8
0
  6
CONTINUOUS
 62
0
 10
12.0435783071797
 20
0.363277032707424
 30
0.0
 11
11.811741252194
 21
0.0271818938227417
 31
0.0
  0
ARC
  8
0
  6
CONTINUOUS
 62
0
 10
13.3591813969713
 20
2.28818966132777
 30
0.0
 40
0.512877143982828
 50
77.153023838943
 51
81.0180727899091
  0
LINE
  8
0
  6
CONTINUOUS
 62
0
 10
11.8980216445978
 20
0.504658637471048
 30
0.0
 11
11.6431913312219
 21
0.135230076659919
 31
0.0
  0
ARC
  8
0
  6
CONTINUOUS
 62
0
 10
13.3697984427226
 20
1.85663369638425
 30
0.0
 40
0.698370337761577
 50
94.861927433507
 51
127.780049350698
  0
LINE
  8
0
  6
CONTINUOUS
 62
0
 10
13.4732185718615
 20
2.78822814740963
 30
0.0
 11
13.310608175641
 21
2.55249118247464
 31
0.0
  0
LINE
  8
0
  6
CONTINUOUS
 62
0
 10
13.6586055326148
 20
2.7045886908825
 30
0.0
 11
13.4978738558315
 21
2.47157531329717
 31
0.0
  0
LINE
  8
0
  6
CONTINUOUS
 62
0
 10
1.76957843183219
 20
0.306532474043682
 30
0.0
 11
1.55827991865017
 21
-0.00478900395823212
 31
0.0
  0
ARC
  8
0
  6
CONTINUOUS
 62
0
 10
1.94843160696357
 20
0.827571804093527
 30
0.0
 40
0.925321816254224
 50
257.706682093717
 51
310.129717630938
  0
LINE
  8
0
  6
CONTINUOUS
 62
0
 10
1.92325334736996
 20
0.176648615780072
 30
0.0
 11
1.75141538245426
 21
-0.076532764480326
 31
0.0
  0
LINE
  8
0
  6
CONTINUOUS
 62
0
 10
3.56795468788758
 20
2.59990680388
 30
0.0
 11
3.38158196660837
 21
2.32531030921418
 31
0.0
  0
ARC
  8
0
  6
CONTINUOUS
 62
0
 10
3.13763730129359
 20
1.78613523520155
 30
0.0
 40
0.927460043015302
 50
74.7751937114936
 51
111.833017225397
  0
ARC
  8
0
  6
CONTINUOUS
 62
0
 10
3.2631158557129
 20
1.61949557868662
 30
0.0
 40
0.795260330849818
 50
94.6469924849709
 51
137.908360639567
  0
LINE
  8
0
  6
CONTINUOUS
 62
0
 10
3.38119476306778
 20
2.68104411000617
 30
0.0
 11
3.19868670360552
 21
2.41214170286947
 31
0.0
  0
ARC
  8
0
  6
CONTINUOUS
 62
0
 10
1.99828401770853
 20
0.566773238826605
 30
0.0
 40
0.397274241549404
 50
259.11352342469
 51
305.200595503398
  0
ARC
  8
0
  6
CONTINUOUS
 62
0
 10
12.0680261576208
 20
0.472701251724564
 30
0.0
 40
0.112122063389402
 50
257.405665486048
 51
308.31591964086
  0
ARC
  8
0
  6
CONTINUOUS
 62
0
 10
24.8995813164967
 20
1.06852526137424
 30
0.0
 40
0.755495106653151
 50
287.657795237223
 51
310.964268120845
  0
ARC
  8
0
  6
CONTINUOUS
 62
0
 10
25.8541672648278
 20
0.568988006162222
 30
0.0
 40
0.932128758957099
 50
166.013337232769
 51
187.62244602331
  0
ARC
  8
0
  6
CONTINUOUS
 62
0
 10
24.9557731826812
 20
0.448474711749328
 30
0.0
 40
0.0256892893942773
 50
186.995290970589
 51
212.730111539158
  0
ARC
  8
0
  6
CONTINUOUS
 62
0
 10
26.3767955716159
 20
2.47806561766949
 30
0.0
 40
0.0796543578419505
 50
68.4739771240384
 51
97.810400871152
  0
ARC
  8
0
  6
CONTINUOUS
 62
0
 10
17.9204367349115
 20
2.52294279284709
 30
0.0
 40
0.0561705947726346
 50
20.5905651233194
 51
77.6560884105956
  0
ARC
  8
0
  6
CONTINUOUS
 62
0
 10
17.9241904954533
 20
2.40226232367643
 30
0.0
 40
0.175746462441193
 50
87.3079803780383
 51
119.816627183654
  0
ARC
  8
0
  6
CONTINUOUS
 62
0
 10
17.8707386604532
 20
2.51791191891204
 30
0.0
 40
0.105240602268142
 50
327.860023597068
 51
13.6217747664043
  0
ENDSEC
  0
EOF
