  0
SECTION
  2
HEADER
  9
$ACADVER
  1
AC1009
  9
$INSBASE
 10
0.0
 20
0.0
 30
0.0
  9
$EXTMIN
 10
0.0
 20
0.0
 30
0.0
  9
$EXTMAX
 10
0.0
 20
0.0
 30
0.0
  0
ENDSEC
  0
SECTION
  2
TABLES
  0
TABLE
  2
VPORT
 70
0
  0
ENDTAB
  0
TABLE
  2
LTYPE
 70
1
  0
LTYPE
  2
CONTINUOUS
 70
0
  3
Solid line
 72
65
 73
0
 40
0.0
  0
ENDTAB
  0
TABLE
  2
LAYER
 70
1
  0
LAYER
  2
0
 70
64
 62
7
  6
continuous
  0
ENDTAB
  0
TABLE
  2
STYLE
 70
1
  0
STYLE
  2
STANDARD
 70
0
 40
0
 41
1.0
 50
0.0
 71
0
 42
1
 3
ARIAL.TTF
 4

  0
ENDTAB
  0
TABLE
  2
VIEW
 70
0
  0
ENDTAB
  0
ENDSEC
  0
SECTION
  2
BLOCKS
  0
BLOCK
  8
0
  2
CUT
 70
0
 10
0.0
 20
0.0
 30
0.0
  3
CUT
  0
LINE
  8
0
 62
0
 10
0.0
 20
4.33012701892
 30
0.0
 11
0.0
 21
7.73589838486
 31
0.0
  0
LINE
  8
0
 62
0
 10
3.0
 20
147.332050808
 30
0.0
 11
-3.5527136788e-15
 21
142.135898385
 31
0.0
  0
LINE
  8
0
 62
0
 10
0.0
 20
147.332050808
 30
0.0
 11
3.0
 21
147.332050808
 31
0.0
  0
LINE
  8
0
 62
0
 10
0.0
 20
147.332050808
 30
0.0
 11
0.0
 21
155.067949192
 31
0.0
  0
LINE
  8
0
 62
0
 10
3.0
 20
155.067949192
 30
0.0
 11
0.0
 21
155.067949192
 31
0.0
  0
LINE
  8
0
 62
0
 10
-7.1054273576e-15
 20
160.264101615
 30
0.0
 11
3.0
 21
155.067949192
 31
0.0
  0
LINE
  8
0
 62
0
 10
0.0
 20
160.264101615
 30
0.0
 11
0.0
 21
163.669872981
 31
0.0
  0
LINE
  8
0
 62
0
 10
2.5
 20
163.669872981
 30
0.0
 11
0.0
 21
163.669872981
 31
0.0
  0
LINE
  8
0
 62
0
 10
5.0
 20
168.0
 30
0.0
 11
2.5
 21
163.669872981
 31
0.0
  0
LINE
  8
0
 62
0
 10
2.5
 20
172.330127019
 30
0.0
 11
5.0
 21
168.0
 31
0.0
  0
LINE
  8
0
 62
0
 10
0.0
 20
172.330127019
 30
0.0
 11
2.5
 21
172.330127019
 31
0.0
  0
LINE
  8
0
 62
0
 10
0.0
 20
172.330127019
 30
0.0
 11
0.0
 21
175.735898385
 31
0.0
  0
LINE
  8
0
 62
0
 10
3.0
 20
180.932050808
 30
0.0
 11
0.0
 21
175.735898385
 31
0.0
  0
LINE
  8
0
 62
0
 10
0.0
 20
180.932050808
 30
0.0
 11
3.0
 21
180.932050808
 31
0.0
  0
LINE
  8
0
 62
0
 10
0.0
 20
180.932050808
 30
0.0
 11
0.0
 21
188.667949192
 31
0.0
  0
LINE
  8
0
 62
0
 10
3.0
 20
188.667949192
 30
0.0
 11
0.0
 21
188.667949192
 31
0.0
  0
LINE
  8
0
 62
0
 10
0.0
 20
193.864101615
 30
0.0
 11
3.0
 21
188.667949192
 31
0.0
  0
LINE
  8
0
 62
0
 10
0.0
 20
193.864101615
 30
0.0
 11
0.0
 21
197.269872981
 31
0.0
  0
LINE
  8
0
 62
0
 10
2.5
 20
197.269872981
 30
0.0
 11
0.0
 21
197.269872981
 31
0.0
  0
LINE
  8
0
 62
0
 10
5.0
 20
201.6
 30
0.0
 11
2.5
 21
197.269872981
 31
0.0
  0
LINE
  8
0
 62
0
 10
2.5
 20
205.930127019
 30
0.0
 11
5.0
 21
201.6
 31
0.0
  0
LINE
  8
0
 62
0
 10
0.0
 20
205.930127019
 30
0.0
 11
2.5
 21
205.930127019
 31
0.0
  0
LINE
  8
0
 62
0
 10
0.0
 20
205.930127019
 30
0.0
 11
0.0
 21
209.335898385
 31
0.0
  0
LINE
  8
0
 62
0
 10
3.0
 20
214.532050808
 30
0.0
 11
0.0
 21
209.335898385
 31
0.0
  0
LINE
  8
0
 62
0
 10
0.0
 20
214.532050808
 30
0.0
 11
3.0
 21
214.532050808
 31
0.0
  0
LINE
  8
0
 62
0
 10
0.0
 20
214.532050808
 30
0.0
 11
0.0
 21
222.267949192
 31
0.0
  0
LINE
  8
0
 62
0
 10
3.0
 20
222.267949192
 30
0.0
 11
0.0
 21
222.267949192
 31
0.0
  0
LINE
  8
0
 62
0
 10
-7.1054273576e-15
 20
227.464101615
 30
0.0
 11
3.0
 21
222.267949192
 31
0.0
  0
LINE
  8
0
 62
0
 10
0.0
 20
227.464101615
 30
0.0
 11
0.0
 21
230.869872981
 31
0.0
  0
LINE
  8
0
 62
0
 10
2.5
 20
230.869872981
 30
0.0
 11
0.0
 21
230.869872981
 31
0.0
  0
LINE
  8
0
 62
0
 10
5.0
 20
235.2
 30
0.0
 11
2.5
 21
230.869872981
 31
0.0
  0
LINE
  8
0
 62
0
 10
2.5
 20
239.530127019
 30
0.0
 11
5.0
 21
235.2
 31
0.0
  0
LINE
  8
0
 62
0
 10
0.0
 20
239.530127019
 30
0.0
 11
2.5
 21
239.530127019
 31
0.0
  0
LINE
  8
0
 62
0
 10
0.0
 20
239.530127019
 30
0.0
 11
0.0
 21
242.935898385
 31
0.0
  0
LINE
  8
0
 62
0
 10
3.0
 20
248.132050808
 30
0.0
 11
0.0
 21
242.935898385
 31
0.0
  0
LINE
  8
0
 62
0
 10
0.0
 20
248.132050808
 30
0.0
 11
3.0
 21
248.132050808
 31
0.0
  0
LINE
  8
0
 62
0
 10
0.0
 20
248.132050808
 30
0.0
 11
0.0
 21
255.867949192
 31
0.0
  0
LINE
  8
0
 62
0
 10
3.0
 20
255.867949192
 30
0.0
 11
0.0
 21
255.867949192
 31
0.0
  0
LINE
  8
0
 62
0
 10
-1.42108547152e-14
 20
261.064101615
 30
0.0
 11
3.0
 21
255.867949192
 31
0.0
  0
LINE
  8
0
 62
0
 10
0.0
 20
261.064101615
 30
0.0
 11
0.0
 21
261.064132423
 31
0.0
  0
LINE
  8
0
 62
0
 10
-7.1054273576e-15
 20
261.064132423
 30
0.0
 11
22.4796336269
 21
300.0
 31
0.0
  0
LINE
  8
0
 62
0
 10
22.4796336269
 20
300.0
 30
0.0
 11
32.9465192399
 21
300.0
 31
0.0
  0
LINE
  8
0
 62
0
 10
12.7
 20
264.932
 30
0.0
 11
32.9465192399
 21
300.0
 31
0.0
  0
LINE
  8
0
 62
0
 10
12.7000086603
 20
264.931995
 30
0.0
 11
12.7
 21
264.932
 31
0.0
  0
LINE
  8
0
 62
0
 10
12.7000086603
 20
264.931995
 30
0.0
 11
32.9465307869
 21
300.0
 31
0.0
  0
LINE
  8
0
 62
0
 10
32.9465307869
 20
300.0
 30
0.0
 11
41.8796220799
 21
300.0
 31
0.0
  0
LINE
  8
0
 62
0
 10
16.4
 20
255.868
 30
0.0
 11
41.8796220799
 21
300.0
 31
0.0
  0
LINE
  8
0
 62
0
 10
16.4000086603
 20
255.867995
 30
0.0
 11
16.4
 21
255.868
 31
0.0
  0
LINE
  8
0
 62
0
 10
16.4000086603
 20
255.867995
 30
0.0
 11
41.8796336269
 21
300.0
 31
0.0
  0
LINE
  8
0
 62
0
 10
41.8796336269
 20
300.0
 30
0.0
 11
52.3465192399
 21
300.0
 31
0.0
  0
LINE
  8
0
 62
0
 10
32.1
 20
264.932
 30
0.0
 11
52.3465192399
 21
300.0
 31
0.0
  0
LINE
  8
0
 62
0
 10
32.1000086603
 20
264.931995
 30
0.0
 11
32.1
 21
264.932
 31
0.0
  0
LINE
  8
0
 62
0
 10
32.1000086603
 20
264.931995
 30
0.0
 11
52.3465307869
 21
300.0
 31
0.0
  0
LINE
  8
0
 62
0
 10
52.3465307869
 20
300.0
 30
0.0
 11
61.2796220799
 21
300.0
 31
0.0
  0
LINE
  8
0
 62
0
 10
35.8
 20
255.868
 30
0.0
 11
61.2796220799
 21
300.0
 31
0.0
  0
LINE
  8
0
 62
0
 10
35.8000086603
 20
255.867995
 30
0.0
 11
35.8
 21
255.868
 31
0.0
  0
LINE
  8
0
 62
0
 10
35.8000086603
 20
255.867995
 30
0.0
 11
61.2796336269
 21
300.0
 31
0.0
  0
LINE
  8
0
 62
0
 10
61.2796336269
 20
300.0
 30
0.0
 11
71.7465192399
 21
300.0
 31
0.0
  0
LINE
  8
0
 62
0
 10
51.5
 20
264.932
 30
0.0
 11
71.7465192399
 21
300.0
 31
0.0
  0
LINE
  8
0
 62
0
 10
51.5000086603
 20
264.931995
 30
0.0
 11
51.5
 21
264.932
 31
0.0
  0
LINE
  8
0
 62
0
 10
51.5000086603
 20
264.931995
 30
0.0
 11
71.7465307869
 21
300.0
 31
0.0
  0
LINE
  8
0
 62
0
 10
71.7465307869
 20
300.0
 30
0.0
 11
80.6796220799
 21
300.0
 31
0.0
  0
LINE
  8
0
 62
0
 10
55.2
 20
255.868
 30
0.0
 11
80.6796220799
 21
300.0
 31
0.0
  0
LINE
  8
0
 62
0
 10
55.2000086603
 20
255.867995
 30
0.0
 11
55.2
 21
255.868
 31
0.0
  0
LINE
  8
0
 62
0
 10
55.2000086603
 20
255.867995
 30
0.0
 11
80.6796336269
 21
300.0
 31
0.0
  0
LINE
  8
0
 62
0
 10
80.6796336269
 20
300.0
 30
0.0
 11
91.1465192399
 21
300.0
 31
0.0
  0
LINE
  8
0
 62
0
 10
70.9
 20
264.932
 30
0.0
 11
91.1465192399
 21
300.0
 31
0.0
  0
LINE
  8
0
 62
0
 10
70.9000086603
 20
264.931995
 30
0.0
 11
70.9
 21
264.932
 31
0.0
  0
LINE
  8
0
 62
0
 10
70.9000086603
 20
264.931995
 30
0.0
 11
91.1465307869
 21
300.0
 31
0.0
  0
LINE
  8
0
 62
0
 10
91.1465307869
 20
300.0
 30
0.0
 11
100.07962208
 21
300.0
 31
0.0
  0
LINE
  8
0
 62
0
 10
74.6
 20
255.868
 30
0.0
 11
100.07962208
 21
300.0
 31
0.0
  0
LINE
  8
0
 62
0
 10
74.6000086603
 20
255.867995
 30
0.0
 11
74.6
 21
255.868
 31
0.0
  0
LINE
  8
0
 62
0
 10
74.6000086603
 20
255.867995
 30
0.0
 11
100.079633627
 21
300.0
 31
0.0
  0
LINE
  8
0
 62
0
 10
100.079633627
 20
300.0
 30
0.0
 11
110.54651924
 21
300.0
 31
0.0
  0
LINE
  8
0
 62
0
 10
90.3
 20
264.932
 30
0.0
 11
110.54651924
 21
300.0
 31
0.0
  0
LINE
  8
0
 62
0
 10
90.3000086603
 20
264.931995
 30
0.0
 11
90.3
 21
264.932
 31
0.0
  0
LINE
  8
0
 62
0
 10
90.3000086603
 20
264.931995
 30
0.0
 11
110.546530787
 21
300.0
 31
0.0
  0
LINE
  8
0
 62
0
 10
110.546530787
 20
300.0
 30
0.0
 11
119.47962208
 21
300.0
 31
0.0
  0
LINE
  8
0
 62
0
 10
94.0
 20
255.868
 30
0.0
 11
119.47962208
 21
300.0
 31
0.0
  0
LINE
  8
0
 62
0
 10
94.0000086603
 20
255.867995
 30
0.0
 11
94.0
 21
255.868
 31
0.0
  0
LINE
  8
0
 62
0
 10
94.0000086603
 20
255.867995
 30
0.0
 11
119.479633627
 21
300.0
 31
0.0
  0
LINE
  8
0
 62
0
 10
119.479633627
 20
300.0
 30
0.0
 11
129.94651924
 21
300.0
 31
0.0
  0
LINE
  8
0
 62
0
 10
109.7
 20
264.932
 30
0.0
 11
129.94651924
 21
300.0
 31
0.0
  0
LINE
  8
0
 62
0
 10
109.70000866
 20
264.931995
 30
0.0
 11
109.7
 21
264.932
 31
0.0
  0
LINE
  8
0
 62
0
 10
109.70000866
 20
264.931995
 30
0.0
 11
129.946530787
 21
300.0
 31
0.0
  0
LINE
  8
0
 62
0
 10
129.946530787
 20
300.0
 30
0.0
 11
138.87962208
 21
300.0
 31
0.0
  0
LINE
  8
0
 62
0
 10
113.4
 20
255.868
 30
0.0
 11
138.87962208
 21
300.0
 31
0.0
  0
LINE
  8
0
 62
0
 10
113.40000866
 20
255.867995
 30
0.0
 11
113.4
 21
255.868
 31
0.0
  0
LINE
  8
0
 62
0
 10
113.40000866
 20
255.867995
 30
0.0
 11
138.879633627
 21
300.0
 31
0.0
  0
LINE
  8
0
 62
0
 10
138.879633627
 20
300.0
 30
0.0
 11
149.34651924
 21
300.0
 31
0.0
  0
LINE
  8
0
 62
0
 10
129.1
 20
264.932
 30
0.0
 11
149.34651924
 21
300.0
 31
0.0
  0
LINE
  8
0
 62
0
 10
129.10000866
 20
264.931995
 30
0.0
 11
129.1
 21
264.932
 31
0.0
  0
LINE
  8
0
 62
0
 10
129.10000866
 20
264.931995
 30
0.0
 11
149.346530787
 21
300.0
 31
0.0
  0
LINE
  8
0
 62
0
 10
149.346530787
 20
300.0
 30
0.0
 11
158.27962208
 21
300.0
 31
0.0
  0
LINE
  8
0
 62
0
 10
132.8
 20
255.868
 30
0.0
 11
158.27962208
 21
300.0
 31
0.0
  0
LINE
  8
0
 62
0
 10
132.80000866
 20
255.867995
 30
0.0
 11
132.8
 21
255.868
 31
0.0
  0
LINE
  8
0
 62
0
 10
132.80000866
 20
255.867995
 30
0.0
 11
158.279633627
 21
300.0
 31
0.0
  0
LINE
  8
0
 62
0
 10
158.279633627
 20
300.0
 30
0.0
 11
168.74651924
 21
300.0
 31
0.0
  0
LINE
  8
0
 62
0
 10
148.5
 20
264.932
 30
0.0
 11
168.74651924
 21
300.0
 31
0.0
  0
LINE
  8
0
 62
0
 10
148.50000866
 20
264.931995
 30
0.0
 11
148.5
 21
264.932
 31
0.0
  0
LINE
  8
0
 62
0
 10
148.50000866
 20
264.931995
 30
0.0
 11
168.746530787
 21
300.0
 31
0.0
  0
LINE
  8
0
 62
0
 10
168.746530787
 20
300.0
 30
0.0
 11
177.67962208
 21
300.0
 31
0.0
  0
LINE
  8
0
 62
0
 10
152.2
 20
255.868
 30
0.0
 11
177.67962208
 21
300.0
 31
0.0
  0
LINE
  8
0
 62
0
 10
152.20000866
 20
255.867995
 30
0.0
 11
152.2
 21
255.868
 31
0.0
  0
LINE
  8
0
 62
0
 10
152.20000866
 20
255.867995
 30
0.0
 11
177.679633627
 21
300.0
 31
0.0
  0
LINE
  8
0
 62
0
 10
177.679633627
 20
300.0
 30
0.0
 11
188.14651924
 21
300.0
 31
0.0
  0
LINE
  8
0
 62
0
 10
167.9
 20
264.932
 30
0.0
 11
188.14651924
 21
300.0
 31
0.0
  0
LINE
  8
0
 62
0
 10
167.90000866
 20
264.931995
 30
0.0
 11
167.9
 21
264.932
 31
0.0
  0
LINE
  8
0
 62
0
 10
167.90000866
 20
264.931995
 30
0.0
 11
188.146530787
 21
300.0
 31
0.0
  0
LINE
  8
0
 62
0
 10
188.146530787
 20
300.0
 30
0.0
 11
197.07962208
 21
300.0
 31
0.0
  0
LINE
  8
0
 62
0
 10
171.6
 20
255.868
 30
0.0
 11
197.07962208
 21
300.0
 31
0.0
  0
LINE
  8
0
 62
0
 10
171.60000866
 20
255.867995
 30
0.0
 11
171.6
 21
255.868
 31
0.0
  0
LINE
  8
0
 62
0
 10
171.60000866
 20
255.867995
 30
0.0
 11
197.079633627
 21
300.0
 31
0.0
  0
LINE
  8
0
 62
0
 10
197.079633627
 20
300.0
 30
0.0
 11
207.54651924
 21
300.0
 31
0.0
  0
LINE
  8
0
 62
0
 10
187.3
 20
264.932
 30
0.0
 11
207.54651924
 21
300.0
 31
0.0
  0
LINE
  8
0
 62
0
 10
187.30000866
 20
264.931995
 30
0.0
 11
187.3
 21
264.932
 31
0.0
  0
LINE
  8
0
 62
0
 10
187.30000866
 20
264.931995
 30
0.0
 11
207.546530787
 21
300.0
 31
0.0
  0
LINE
  8
0
 62
0
 10
207.546530787
 20
300.0
 30
0.0
 11
216.47962208
 21
300.0
 31
0.0
  0
LINE
  8
0
 62
0
 10
191.0
 20
255.868
 30
0.0
 11
216.47962208
 21
300.0
 31
0.0
  0
LINE
  8
0
 62
0
 10
191.00000866
 20
255.867995
 30
0.0
 11
191.0
 21
255.868
 31
0.0
  0
LINE
  8
0
 62
0
 10
191.00000866
 20
255.867995
 30
0.0
 11
216.479633627
 21
300.0
 31
0.0
  0
LINE
  8
0
 62
0
 10
216.479633627
 20
300.0
 30
0.0
 11
226.94651924
 21
300.0
 31
0.0
  0
LINE
  8
0
 62
0
 10
206.7
 20
264.932
 30
0.0
 11
226.94651924
 21
300.0
 31
0.0
  0
LINE
  8
0
 62
0
 10
206.70000866
 20
264.931995
 30
0.0
 11
206.7
 21
264.932
 31
0.0
  0
LINE
  8
0
 62
0
 10
206.70000866
 20
264.931995
 30
0.0
 11
226.946530787
 21
300.0
 31
0.0
  0
LINE
  8
0
 62
0
 10
226.946530787
 20
300.0
 30
0.0
 11
235.87962208
 21
300.0
 31
0.0
  0
LINE
  8
0
 62
0
 10
210.4
 20
255.868
 30
0.0
 11
235.87962208
 21
300.0
 31
0.0
  0
LINE
  8
0
 62
0
 10
210.40000866
 20
255.867995
 30
0.0
 11
210.4
 21
255.868
 31
0.0
  0
LINE
  8
0
 62
0
 10
210.40000866
 20
255.867995
 30
0.0
 11
235.879633627
 21
300.0
 31
0.0
  0
LINE
  8
0
 62
0
 10
235.879633627
 20
300.0
 30
0.0
 11
246.34651924
 21
300.0
 31
0.0
  0
LINE
  8
0
 62
0
 10
226.1
 20
264.932
 30
0.0
 11
246.34651924
 21
300.0
 31
0.0
  0
LINE
  8
0
 62
0
 10
226.10000866
 20
264.931995
 30
0.0
 11
226.1
 21
264.932
 31
0.0
  0
LINE
  8
0
 62
0
 10
226.10000866
 20
264.931995
 30
0.0
 11
246.346530787
 21
300.0
 31
0.0
  0
LINE
  8
0
 62
0
 10
246.346530787
 20
300.0
 30
0.0
 11
255.27962208
 21
300.0
 31
0.0
  0
LINE
  8
0
 62
0
 10
229.8
 20
255.868
 30
0.0
 11
255.27962208
 21
300.0
 31
0.0
  0
LINE
  8
0
 62
0
 10
229.80000866
 20
255.867995
 30
0.0
 11
229.8
 21
255.868
 31
0.0
  0
LINE
  8
0
 62
0
 10
229.80000866
 20
255.867995
 30
0.0
 11
255.279633627
 21
300.0
 31
0.0
  0
LINE
  8
0
 62
0
 10
255.279633627
 20
300.0
 30
0.0
 11
265.74651924
 21
300.0
 31
0.0
  0
LINE
  8
0
 62
0
 10
245.5
 20
264.932
 30
0.0
 11
265.74651924
 21
300.0
 31
0.0
  0
LINE
  8
0
 62
0
 10
245.50000866
 20
264.931995
 30
0.0
 11
245.5
 21
264.932
 31
0.0
  0
LINE
  8
0
 62
0
 10
245.50000866
 20
264.931995
 30
0.0
 11
265.746530787
 21
300.0
 31
0.0
  0
LINE
  8
0
 62
0
 10
265.746530787
 20
300.0
 30
0.0
 11
274.67962208
 21
300.0
 31
0.0
  0
LINE
  8
0
 62
0
 10
249.2
 20
255.868
 30
0.0
 11
274.67962208
 21
300.0
 31
0.0
  0
LINE
  8
0
 62
0
 10
249.20000866
 20
255.867995
 30
0.0
 11
249.2
 21
255.868
 31
0.0
  0
LINE
  8
0
 62
0
 10
249.20000866
 20
255.867995
 30
0.0
 11
274.679633627
 21
300.0
 31
0.0
  0
LINE
  8
0
 62
0
 10
274.679633627
 20
300.0
 30
0.0
 11
285.14651924
 21
300.0
 31
0.0
  0
LINE
  8
0
 62
0
 10
264.9
 20
264.932
 30
0.0
 11
285.14651924
 21
300.0
 31
0.0
  0
LINE
  8
0
 62
0
 10
264.90000866
 20
264.931995
 30
0.0
 11
264.9
 21
264.932
 31
0.0
  0
LINE
  8
0
 62
0
 10
264.90000866
 20
264.931995
 30
0.0
 11
285.146530787
 21
300.0
 31
0.0
  0
LINE
  8
0
 62
0
 10
285.146530787
 20
300.0
 30
0.0
 11
294.07962208
 21
300.0
 31
0.0
  0
LINE
  8
0
 62
0
 10
268.6
 20
255.868
 30
0.0
 11
294.07962208
 21
300.0
 31
0.0
  0
LINE
  8
0
 62
0
 10
268.60000866
 20
255.867995
 30
0.0
 11
268.6
 21
255.868
 31
0.0
  0
LINE
  8
0
 62
0
 10
268.60000866
 20
255.867995
 30
0.0
 11
294.079633627
 21
300.0
 31
0.0
  0
LINE
  8
0
 62
0
 10
294.079633627
 20
300.0
 30
0.0
 11
300.0
 21
300.0
 31
0.0
  0
LINE
  8
0
 62
0
 10
300.0
 20
292.125197679
 30
0.0
 11
300.0
 21
300.0
 31
0.0
  0
LINE
  8
0
 62
0
 10
284.3
 20
264.932
 30
0.0
 11
300.0
 21
292.125197679
 31
0.0
  0
LINE
  8
0
 62
0
 10
284.30000866
 20
264.931995
 30
0.0
 11
284.3
 21
264.932
 31
0.0
  0
LINE
  8
0
 62
0
 10
284.30000866
 20
264.931995
 30
0.0
 11
300.0
 21
292.125177679
 31
0.0
  0
LINE
  8
0
 62
0
 10
300.0
 20
264.932050808
 30
0.0
 11
300.0
 21
292.125177679
 31
0.0
  0
LINE
  8
0
 62
0
 10
297.7
 20
264.932050808
 30
0.0
 11
300.0
 21
264.932050808
 31
0.0
  0
LINE
  8
0
 62
0
 10
300.0
 20
260.94833395
 30
0.0
 11
297.7
 21
264.932050808
 31
0.0
  0
LINE
  8
0
 62
0
 10
300.0
 20
256.330127019
 30
0.0
 11
300.0
 21
260.94833395
 31
0.0
  0
LINE
  8
0
 62
0
 10
298.2
 20
256.330127019
 30
0.0
 11
300.0
 21
256.330127019
 31
0.0
  0
LINE
  8
0
 62
0
 10
295.7
 20
252.0
 30
0.0
 11
298.2
 21
256.330127019
 31
0.0
  0
LINE
  8
0
 62
0
 10
298.2
 20
247.669872981
 30
0.0
 11
295.7
 21
252.0
 31
0.0
  0
LINE
  8
0
 62
0
 10
300.0
 20
247.669872981
 30
0.0
 11
298.2
 21
247.669872981
 31
0.0
  0
LINE
  8
0
 62
0
 10
300.0
 20
243.05166605
 30
0.0
 11
300.0
 21
247.669872981
 31
0.0
  0
LINE
  8
0
 62
0
 10
297.7
 20
239.067949192
 30
0.0
 11
300.0
 21
243.05166605
 31
0.0
  0
LINE
  8
0
 62
0
 10
300.0
 20
239.067949192
 30
0.0
 11
297.7
 21
239.067949192
 31
0.0
  0
LINE
  8
0
 62
0
 10
300.0
 20
231.332050808
 30
0.0
 11
300.0
 21
239.067949192
 31
0.0
  0
LINE
  8
0
 62
0
 10
297.7
 20
231.332050808
 30
0.0
 11
300.0
 21
231.332050808
 31
0.0
  0
LINE
  8
0
 62
0
 10
300.0
 20
227.34833395
 30
0.0
 11
297.7
 21
231.332050808
 31
0.0
  0
LINE
  8
0
 62
0
 10
300.0
 20
222.730127019
 30
0.0
 11
300.0
 21
227.34833395
 31
0.0
  0
LINE
  8
0
 62
0
 10
298.2
 20
222.730127019
 30
0.0
 11
300.0
 21
222.730127019
 31
0.0
  0
LINE
  8
0
 62
0
 10
295.7
 20
218.4
 30
0.0
 11
298.2
 21
222.730127019
 31
0.0
  0
LINE
  8
0
 62
0
 10
298.2
 20
214.069872981
 30
0.0
 11
295.7
 21
218.4
 31
0.0
  0
LINE
  8
0
 62
0
 10
300.0
 20
214.069872981
 30
0.0
 11
298.2
 21
214.069872981
 31
0.0
  0
LINE
  8
0
 62
0
 10
300.0
 20
209.45166605
 30
0.0
 11
300.0
 21
214.069872981
 31
0.0
  0
LINE
  8
0
 62
0
 10
297.7
 20
205.467949192
 30
0.0
 11
300.0
 21
209.45166605
 31
0.0
  0
LINE
  8
0
 62
0
 10
300.0
 20
205.467949192
 30
0.0
 11
297.7
 21
205.467949192
 31
0.0
  0
LINE
  8
0
 62
0
 10
300.0
 20
197.732050808
 30
0.0
 11
300.0
 21
205.467949192
 31
0.0
  0
LINE
  8
0
 62
0
 10
297.7
 20
197.732050808
 30
0.0
 11
300.0
 21
197.732050808
 31
0.0
  0
LINE
  8
0
 62
0
 10
300.0
 20
193.74833395
 30
0.0
 11
297.7
 21
197.732050808
 31
0.0
  0
LINE
  8
0
 62
0
 10
300.0
 20
189.130127019
 30
0.0
 11
300.0
 21
193.74833395
 31
0.0
  0
LINE
  8
0
 62
0
 10
298.2
 20
189.130127019
 30
0.0
 11
300.0
 21
189.130127019
 31
0.0
  0
LINE
  8
0
 62
0
 10
295.7
 20
184.8
 30
0.0
 11
298.2
 21
189.130127019
 31
0.0
  0
LINE
  8
0
 62
0
 10
298.2
 20
180.469872981
 30
0.0
 11
295.7
 21
184.8
 31
0.0
  0
LINE
  8
0
 62
0
 10
300.0
 20
180.469872981
 30
0.0
 11
298.2
 21
180.469872981
 31
0.0
  0
LINE
  8
0
 62
0
 10
300.0
 20
175.85166605
 30
0.0
 11
300.0
 21
180.469872981
 31
0.0
  0
LINE
  8
0
 62
0
 10
297.7
 20
171.867949192
 30
0.0
 11
300.0
 21
175.85166605
 31
0.0
  0
LINE
  8
0
 62
0
 10
300.0
 20
171.867949192
 30
0.0
 11
297.7
 21
171.867949192
 31
0.0
  0
LINE
  8
0
 62
0
 10
300.0
 20
164.132050808
 30
0.0
 11
300.0
 21
171.867949192
 31
0.0
  0
LINE
  8
0
 62
0
 10
297.7
 20
164.132050808
 30
0.0
 11
300.0
 21
164.132050808
 31
0.0
  0
LINE
  8
0
 62
0
 10
300.0
 20
160.14833395
 30
0.0
 11
297.7
 21
164.132050808
 31
0.0
  0
LINE
  8
0
 62
0
 10
300.0
 20
155.530127019
 30
0.0
 11
300.0
 21
160.14833395
 31
0.0
  0
LINE
  8
0
 62
0
 10
298.2
 20
155.530127019
 30
0.0
 11
300.0
 21
155.530127019
 31
0.0
  0
LINE
  8
0
 62
0
 10
295.7
 20
151.2
 30
0.0
 11
298.2
 21
155.530127019
 31
0.0
  0
LINE
  8
0
 62
0
 10
298.2
 20
146.869872981
 30
0.0
 11
295.7
 21
151.2
 31
0.0
  0
LINE
  8
0
 62
0
 10
300.0
 20
146.869872981
 30
0.0
 11
298.2
 21
146.869872981
 31
0.0
  0
LINE
  8
0
 62
0
 10
300.0
 20
142.25166605
 30
0.0
 11
300.0
 21
146.869872981
 31
0.0
  0
LINE
  8
0
 62
0
 10
297.7
 20
138.267949192
 30
0.0
 11
300.0
 21
142.25166605
 31
0.0
  0
LINE
  8
0
 62
0
 10
300.0
 20
138.267949192
 30
0.0
 11
297.7
 21
138.267949192
 31
0.0
  0
LINE
  8
0
 62
0
 10
300.0
 20
130.532050808
 30
0.0
 11
300.0
 21
138.267949192
 31
0.0
  0
LINE
  8
0
 62
0
 10
297.7
 20
130.532050808
 30
0.0
 11
300.0
 21
130.532050808
 31
0.0
  0
LINE
  8
0
 62
0
 10
300.0
 20
126.54833395
 30
0.0
 11
297.7
 21
130.532050808
 31
0.0
  0
LINE
  8
0
 62
0
 10
300.0
 20
121.930127019
 30
0.0
 11
300.0
 21
126.54833395
 31
0.0
  0
LINE
  8
0
 62
0
 10
298.2
 20
121.930127019
 30
0.0
 11
300.0
 21
121.930127019
 31
0.0
  0
LINE
  8
0
 62
0
 10
295.7
 20
117.6
 30
0.0
 11
298.2
 21
121.930127019
 31
0.0
  0
LINE
  8
0
 62
0
 10
298.2
 20
113.269872981
 30
0.0
 11
295.7
 21
117.6
 31
0.0
  0
LINE
  8
0
 62
0
 10
300.0
 20
113.269872981
 30
0.0
 11
298.2
 21
113.269872981
 31
0.0
  0
LINE
  8
0
 62
0
 10
300.0
 20
108.65166605
 30
0.0
 11
300.0
 21
113.269872981
 31
0.0
  0
LINE
  8
0
 62
0
 10
297.7
 20
104.667949192
 30
0.0
 11
300.0
 21
108.65166605
 31
0.0
  0
LINE
  8
0
 62
0
 10
300.0
 20
104.667949192
 30
0.0
 11
297.7
 21
104.667949192
 31
0.0
  0
LINE
  8
0
 62
0
 10
300.0
 20
96.9320508076
 30
0.0
 11
300.0
 21
104.667949192
 31
0.0
  0
LINE
  8
0
 62
0
 10
297.7
 20
96.9320508076
 30
0.0
 11
300.0
 21
96.9320508076
 31
0.0
  0
LINE
  8
0
 62
0
 10
300.0
 20
92.9483339502
 30
0.0
 11
297.7
 21
96.9320508076
 31
0.0
  0
LINE
  8
0
 62
0
 10
300.0
 20
88.3301270189
 30
0.0
 11
300.0
 21
92.9483339502
 31
0.0
  0
LINE
  8
0
 62
0
 10
298.2
 20
88.3301270189
 30
0.0
 11
300.0
 21
88.3301270189
 31
0.0
  0
LINE
  8
0
 62
0
 10
295.7
 20
84.0
 30
0.0
 11
298.2
 21
88.3301270189
 31
0.0
  0
LINE
  8
0
 62
0
 10
298.2
 20
79.6698729811
 30
0.0
 11
295.7
 21
84.0
 31
0.0
  0
LINE
  8
0
 62
0
 10
300.0
 20
79.6698729811
 30
0.0
 11
298.2
 21
79.6698729811
 31
0.0
  0
LINE
  8
0
 62
0
 10
300.0
 20
75.0516660498
 30
0.0
 11
300.0
 21
79.6698729811
 31
0.0
  0
LINE
  8
0
 62
0
 10
297.7
 20
71.0679491924
 30
0.0
 11
300.0
 21
75.0516660498
 31
0.0
  0
LINE
  8
0
 62
0
 10
300.0
 20
71.0679491924
 30
0.0
 11
297.7
 21
71.0679491924
 31
0.0
  0
LINE
  8
0
 62
0
 10
300.0
 20
63.3320508076
 30
0.0
 11
300.0
 21
71.0679491924
 31
0.0
  0
LINE
  8
0
 62
0
 10
297.7
 20
63.3320508076
 30
0.0
 11
300.0
 21
63.3320508076
 31
0.0
  0
LINE
  8
0
 62
0
 10
300.0
 20
59.3483339502
 30
0.0
 11
297.7
 21
63.3320508076
 31
0.0
  0
LINE
  8
0
 62
0
 10
300.0
 20
54.7301270189
 30
0.0
 11
300.0
 21
59.3483339502
 31
0.0
  0
LINE
  8
0
 62
0
 10
298.2
 20
54.7301270189
 30
0.0
 11
300.0
 21
54.7301270189
 31
0.0
  0
LINE
  8
0
 62
0
 10
295.7
 20
50.4
 30
0.0
 11
298.2
 21
54.7301270189
 31
0.0
  0
LINE
  8
0
 62
0
 10
298.2
 20
46.0698729811
 30
0.0
 11
295.7
 21
50.4
 31
0.0
  0
LINE
  8
0
 62
0
 10
300.0
 20
46.0698729811
 30
0.0
 11
298.2
 21
46.0698729811
 31
0.0
  0
LINE
  8
0
 62
0
 10
300.0
 20
41.4516660498
 30
0.0
 11
300.0
 21
46.0698729811
 31
0.0
  0
LINE
  8
0
 62
0
 10
297.7
 20
37.4679491924
 30
0.0
 11
300.0
 21
41.4516660498
 31
0.0
  0
LINE
  8
0
 62
0
 10
300.0
 20
37.4679491924
 30
0.0
 11
297.7
 21
37.4679491924
 31
0.0
  0
LINE
  8
0
 62
0
 10
300.0
 20
29.7320508076
 30
0.0
 11
300.0
 21
37.4679491924
 31
0.0
  0
LINE
  8
0
 62
0
 10
297.7
 20
29.7320508076
 30
0.0
 11
300.0
 21
29.7320508076
 31
0.0
  0
LINE
  8
0
 62
0
 10
300.0
 20
25.7483339502
 30
0.0
 11
297.7
 21
29.7320508076
 31
0.0
  0
LINE
  8
0
 62
0
 10
300.0
 20
21.1301270189
 30
0.0
 11
300.0
 21
25.7483339502
 31
0.0
  0
LINE
  8
0
 62
0
 10
298.2
 20
21.1301270189
 30
0.0
 11
300.0
 21
21.1301270189
 31
0.0
  0
LINE
  8
0
 62
0
 10
295.7
 20
16.8
 30
0.0
 11
298.2
 21
21.1301270189
 31
0.0
  0
LINE
  8
0
 62
0
 10
298.2
 20
12.4698729811
 30
0.0
 11
295.7
 21
16.8
 31
0.0
  0
LINE
  8
0
 62
0
 10
300.0
 20
12.4698729811
 30
0.0
 11
298.2
 21
12.4698729811
 31
0.0
  0
LINE
  8
0
 62
0
 10
300.0
 20
7.85166604984
 30
0.0
 11
300.0
 21
12.4698729811
 31
0.0
  0
LINE
  8
0
 62
0
 10
297.7
 20
3.86794919243
 30
0.0
 11
300.0
 21
7.85166604984
 31
0.0
  0
LINE
  8
0
 62
0
 10
300.0
 20
3.86794919243
 30
0.0
 11
297.7
 21
3.86794919243
 31
0.0
  0
LINE
  8
0
 62
0
 10
300.0
 20
0.0
 30
0.0
 11
300.0
 21
3.86794919243
 31
0.0
  0
LINE
  8
0
 62
0
 10
296.0
 20
0.0
 30
0.0
 11
300.0
 21
0.0
 31
0.0
  0
LINE
  8
0
 62
0
 10
293.5
 20
4.33012701892
 30
0.0
 11
296.0
 21
-1.42108547152e-14
 31
0.0
  0
LINE
  8
0
 62
0
 10
288.5
 20
4.33012701892
 30
0.0
 11
293.5
 21
4.33012701892
 31
0.0
  0
LINE
  8
0
 62
0
 10
286.0
 20
7.1054273576e-15
 30
0.0
 11
288.5
 21
4.33012701892
 31
0.0
  0
LINE
  8
0
 62
0
 10
276.6
 20
0.0
 30
0.0
 11
286.0
 21
0.0
 31
0.0
  0
LINE
  8
0
 62
0
 10
274.1
 20
4.33012701892
 30
0.0
 11
276.6
 21
7.1054273576e-15
 31
0.0
  0
LINE
  8
0
 62
0
 10
269.1
 20
4.33012701892
 30
0.0
 11
274.1
 21
4.33012701892
 31
0.0
  0
LINE
  8
0
 62
0
 10
266.6
 20
7.1054273576e-15
 30
0.0
 11
269.1
 21
4.33012701892
 31
0.0
  0
LINE
  8
0
 62
0
 10
257.2
 20
0.0
 30
0.0
 11
266.6
 21
0.0
 31
0.0
  0
LINE
  8
0
 62
0
 10
254.7
 20
4.33012701892
 30
0.0
 11
257.2
 21
0.0
 31
0.0
  0
LINE
  8
0
 62
0
 10
249.7
 20
4.33012701892
 30
0.0
 11
254.7
 21
4.33012701892
 31
0.0
  0
LINE
  8
0
 62
0
 10
247.2
 20
-7.1054273576e-15
 30
0.0
 11
249.7
 21
4.33012701892
 31
0.0
  0
LINE
  8
0
 62
0
 10
237.8
 20
0.0
 30
0.0
 11
247.2
 21
0.0
 31
0.0
  0
LINE
  8
0
 62
0
 10
235.3
 20
4.33012701892
 30
0.0
 11
237.8
 21
1.42108547152e-14
 31
0.0
  0
LINE
  8
0
 62
0
 10
230.3
 20
4.33012701892
 30
0.0
 11
235.3
 21
4.33012701892
 31
0.0
  0
LINE
  8
0
 62
0
 10
227.8
 20
7.1054273576e-15
 30
0.0
 11
230.3
 21
4.33012701892
 31
0.0
  0
LINE
  8
0
 62
0
 10
218.4
 20
0.0
 30
0.0
 11
227.8
 21
0.0
 31
0.0
  0
LINE
  8
0
 62
0
 10
215.9
 20
4.33012701892
 30
0.0
 11
218.4
 21
0.0
 31
0.0
  0
LINE
  8
0
 62
0
 10
210.9
 20
4.33012701892
 30
0.0
 11
215.9
 21
4.33012701892
 31
0.0
  0
LINE
  8
0
 62
0
 10
208.4
 20
-7.1054273576e-15
 30
0.0
 11
210.9
 21
4.33012701892
 31
0.0
  0
LINE
  8
0
 62
0
 10
199.0
 20
0.0
 30
0.0
 11
208.4
 21
0.0
 31
0.0
  0
LINE
  8
0
 62
0
 10
196.5
 20
4.33012701892
 30
0.0
 11
199.0
 21
-7.1054273576e-15
 31
0.0
  0
LINE
  8
0
 62
0
 10
191.5
 20
4.33012701892
 30
0.0
 11
196.5
 21
4.33012701892
 31
0.0
  0
LINE
  8
0
 62
0
 10
189.0
 20
7.1054273576e-15
 30
0.0
 11
191.5
 21
4.33012701892
 31
0.0
  0
LINE
  8
0
 62
0
 10
179.6
 20
0.0
 30
0.0
 11
189.0
 21
0.0
 31
0.0
  0
LINE
  8
0
 62
0
 10
177.1
 20
4.33012701892
 30
0.0
 11
179.6
 21
0.0
 31
0.0
  0
LINE
  8
0
 62
0
 10
172.1
 20
4.33012701892
 30
0.0
 11
177.1
 21
4.33012701892
 31
0.0
  0
LINE
  8
0
 62
0
 10
169.6
 20
0.0
 30
0.0
 11
172.1
 21
4.33012701892
 31
0.0
  0
LINE
  8
0
 62
0
 10
160.2
 20
0.0
 30
0.0
 11
169.6
 21
0.0
 31
0.0
  0
LINE
  8
0
 62
0
 10
157.7
 20
4.33012701892
 30
0.0
 11
160.2
 21
7.1054273576e-15
 31
0.0
  0
LINE
  8
0
 62
0
 10
152.7
 20
4.33012701892
 30
0.0
 11
157.7
 21
4.33012701892
 31
0.0
  0
LINE
  8
0
 62
0
 10
150.2
 20
7.1054273576e-15
 30
0.0
 11
152.7
 21
4.33012701892
 31
0.0
  0
LINE
  8
0
 62
0
 10
140.8
 20
0.0
 30
0.0
 11
150.2
 21
0.0
 31
0.0
  0
LINE
  8
0
 62
0
 10
138.3
 20
4.33012701892
 30
0.0
 11
140.8
 21
0.0
 31
0.0
  0
LINE
  8
0
 62
0
 10
133.3
 20
4.33012701892
 30
0.0
 11
138.3
 21
4.33012701892
 31
0.0
  0
LINE
  8
0
 62
0
 10
130.8
 20
0.0
 30
0.0
 11
133.3
 21
4.33012701892
 31
0.0
  0
LINE
  8
0
 62
0
 10
121.4
 20
0.0
 30
0.0
 11
130.8
 21
0.0
 31
0.0
  0
LINE
  8
0
 62
0
 10
118.9
 20
4.33012701892
 30
0.0
 11
121.4
 21
0.0
 31
0.0
  0
LINE
  8
0
 62
0
 10
113.9
 20
4.33012701892
 30
0.0
 11
118.9
 21
4.33012701892
 31
0.0
  0
LINE
  8
0
 62
0
 10
111.4
 20
-7.1054273576e-15
 30
0.0
 11
113.9
 21
4.33012701892
 31
0.0
  0
LINE
  8
0
 62
0
 10
102.0
 20
0.0
 30
0.0
 11
111.4
 21
0.0
 31
0.0
  0
LINE
  8
0
 62
0
 10
99.5
 20
4.33012701892
 30
0.0
 11
102.0
 21
-3.5527136788e-15
 31
0.0
  0
LINE
  8
0
 62
0
 10
94.5
 20
4.33012701892
 30
0.0
 11
99.5
 21
4.33012701892
 31
0.0
  0
LINE
  8
0
 62
0
 10
92.0
 20
3.5527136788e-15
 30
0.0
 11
94.5
 21
4.33012701892
 31
0.0
  0
LINE
  8
0
 62
0
 10
82.6
 20
0.0
 30
0.0
 11
92.0
 21
0.0
 31
0.0
  0
LINE
  8
0
 62
0
 10
80.1
 20
4.33012701892
 30
0.0
 11
82.6
 21
3.5527136788e-15
 31
0.0
  0
LINE
  8
0
 62
0
 10
75.1
 20
4.33012701892
 30
0.0
 11
80.1
 21
4.33012701892
 31
0.0
  0
LINE
  8
0
 62
0
 10
72.6
 20
3.5527136788e-15
 30
0.0
 11
75.1
 21
4.33012701892
 31
0.0
  0
LINE
  8
0
 62
0
 10
63.2
 20
0.0
 30
0.0
 11
72.6
 21
0.0
 31
0.0
  0
LINE
  8
0
 62
0
 10
60.7
 20
4.33012701892
 30
0.0
 11
63.2
 21
3.5527136788e-15
 31
0.0
  0
LINE
  8
0
 62
0
 10
55.7
 20
4.33012701892
 30
0.0
 11
60.7
 21
4.33012701892
 31
0.0
  0
LINE
  8
0
 62
0
 10
53.2
 20
1.7763568394e-15
 30
0.0
 11
55.7
 21
4.33012701892
 31
0.0
  0
LINE
  8
0
 62
0
 10
43.8
 20
0.0
 30
0.0
 11
53.2
 21
0.0
 31
0.0
  0
LINE
  8
0
 62
0
 10
41.3
 20
4.33012701892
 30
0.0
 11
43.8
 21
1.7763568394e-15
 31
0.0
  0
LINE
  8
0
 62
0
 10
36.3
 20
4.33012701892
 30
0.0
 11
41.3
 21
4.33012701892
 31
0.0
  0
LINE
  8
0
 62
0
 10
33.8
 20
0.0
 30
0.0
 11
36.3
 21
4.33012701892
 31
0.0
  0
LINE
  8
0
 62
0
 10
24.4
 20
0.0
 30
0.0
 11
33.8
 21
0.0
 31
0.0
  0
LINE
  8
0
 62
0
 10
21.9
 20
4.33012701892
 30
0.0
 11
24.4
 21
8.881784197e-16
 31
0.0
  0
LINE
  8
0
 62
0
 10
16.9
 20
4.33012701892
 30
0.0
 11
21.9
 21
4.33012701892
 31
0.0
  0
LINE
  8
0
 62
0
 10
14.4
 20
-1.44328993201e-15
 30
0.0
 11
16.9
 21
4.33012701892
 31
0.0
  0
LINE
  8
0
 62
0
 10
5.0
 20
0.0
 30
0.0
 11
14.4
 21
0.0
 31
0.0
  0
LINE
  8
0
 62
0
 10
2.5
 20
4.33012701892
 30
0.0
 11
5.0
 21
2.22044604925e-16
 31
0.0
  0
LINE
  8
0
 62
0
 10
0.0
 20
4.33012701892
 30
0.0
 11
2.5
 21
4.33012701892
 31
0.0
  0
LINE
  8
0
 62
0
 10
3.0
 20
12.9320508076
 30
0.0
 11
-4.4408920985e-16
 21
7.73589838486
 31
0.0
  0
LINE
  8
0
 62
0
 10
0.0
 20
12.9320508076
 30
0.0
 11
3.0
 21
12.9320508076
 31
0.0
  0
LINE
  8
0
 62
0
 10
0.0
 20
12.9320508076
 30
0.0
 11
0.0
 21
20.6679491924
 31
0.0
  0
LINE
  8
0
 62
0
 10
3.0
 20
20.6679491924
 30
0.0
 11
0.0
 21
20.6679491924
 31
0.0
  0
LINE
  8
0
 62
0
 10
0.0
 20
25.8641016151
 30
0.0
 11
3.0
 21
20.6679491924
 31
0.0
  0
LINE
  8
0
 62
0
 10
0.0
 20
25.8641016151
 30
0.0
 11
0.0
 21
29.2698729811
 31
0.0
  0
LINE
  8
0
 62
0
 10
2.5
 20
29.2698729811
 30
0.0
 11
0.0
 21
29.2698729811
 31
0.0
  0
LINE
  8
0
 62
0
 10
5.0
 20
33.6
 30
0.0
 11
2.5
 21
29.2698729811
 31
0.0
  0
LINE
  8
0
 62
0
 10
2.5
 20
37.9301270189
 30
0.0
 11
5.0
 21
33.6
 31
0.0
  0
LINE
  8
0
 62
0
 10
0.0
 20
37.9301270189
 30
0.0
 11
2.5
 21
37.9301270189
 31
0.0
  0
LINE
  8
0
 62
0
 10
0.0
 20
37.9301270189
 30
0.0
 11
0.0
 21
41.3358983849
 31
0.0
  0
LINE
  8
0
 62
0
 10
3.0
 20
46.5320508076
 30
0.0
 11
-1.7763568394e-15
 21
41.3358983849
 31
0.0
  0
LINE
  8
0
 62
0
 10
0.0
 20
46.5320508076
 30
0.0
 11
3.0
 21
46.5320508076
 31
0.0
  0
LINE
  8
0
 62
0
 10
0.0
 20
46.5320508076
 30
0.0
 11
0.0
 21
54.2679491924
 31
0.0
  0
LINE
  8
0
 62
0
 10
3.0
 20
54.2679491924
 30
0.0
 11
0.0
 21
54.2679491924
 31
0.0
  0
LINE
  8
0
 62
0
 10
0.0
 20
59.4641016151
 30
0.0
 11
3.0
 21
54.2679491924
 31
0.0
  0
LINE
  8
0
 62
0
 10
0.0
 20
59.4641016151
 30
0.0
 11
0.0
 21
62.8698729811
 31
0.0
  0
LINE
  8
0
 62
0
 10
2.5
 20
62.8698729811
 30
0.0
 11
0.0
 21
62.8698729811
 31
0.0
  0
LINE
  8
0
 62
0
 10
5.0
 20
67.2
 30
0.0
 11
2.5
 21
62.8698729811
 31
0.0
  0
LINE
  8
0
 62
0
 10
2.5
 20
71.5301270189
 30
0.0
 11
5.0
 21
67.2
 31
0.0
  0
LINE
  8
0
 62
0
 10
0.0
 20
71.5301270189
 30
0.0
 11
2.5
 21
71.5301270189
 31
0.0
  0
LINE
  8
0
 62
0
 10
0.0
 20
71.5301270189
 30
0.0
 11
0.0
 21
74.9358983849
 31
0.0
  0
LINE
  8
0
 62
0
 10
3.0
 20
80.1320508076
 30
0.0
 11
3.5527136788e-15
 21
74.9358983849
 31
0.0
  0
LINE
  8
0
 62
0
 10
0.0
 20
80.1320508076
 30
0.0
 11
3.0
 21
80.1320508076
 31
0.0
  0
LINE
  8
0
 62
0
 10
0.0
 20
80.1320508076
 30
0.0
 11
0.0
 21
87.8679491924
 31
0.0
  0
LINE
  8
0
 62
0
 10
3.0
 20
87.8679491924
 30
0.0
 11
0.0
 21
87.8679491924
 31
0.0
  0
LINE
  8
0
 62
0
 10
0.0
 20
93.0641016151
 30
0.0
 11
3.0
 21
87.8679491924
 31
0.0
  0
LINE
  8
0
 62
0
 10
0.0
 20
93.0641016151
 30
0.0
 11
0.0
 21
96.4698729811
 31
0.0
  0
LINE
  8
0
 62
0
 10
2.5
 20
96.4698729811
 30
0.0
 11
0.0
 21
96.4698729811
 31
0.0
  0
LINE
  8
0
 62
0
 10
5.0
 20
100.8
 30
0.0
 11
2.5
 21
96.4698729811
 31
0.0
  0
LINE
  8
0
 62
0
 10
2.5
 20
105.130127019
 30
0.0
 11
5.0
 21
100.8
 31
0.0
  0
LINE
  8
0
 62
0
 10
0.0
 20
105.130127019
 30
0.0
 11
2.5
 21
105.130127019
 31
0.0
  0
LINE
  8
0
 62
0
 10
0.0
 20
105.130127019
 30
0.0
 11
0.0
 21
108.535898385
 31
0.0
  0
LINE
  8
0
 62
0
 10
3.0
 20
113.732050808
 30
0.0
 11
-3.5527136788e-15
 21
108.535898385
 31
0.0
  0
LINE
  8
0
 62
0
 10
0.0
 20
113.732050808
 30
0.0
 11
3.0
 21
113.732050808
 31
0.0
  0
LINE
  8
0
 62
0
 10
0.0
 20
113.732050808
 30
0.0
 11
0.0
 21
121.467949192
 31
0.0
  0
LINE
  8
0
 62
0
 10
3.0
 20
121.467949192
 30
0.0
 11
0.0
 21
121.467949192
 31
0.0
  0
LINE
  8
0
 62
0
 10
0.0
 20
126.664101615
 30
0.0
 11
3.0
 21
121.467949192
 31
0.0
  0
LINE
  8
0
 62
0
 10
0.0
 20
126.664101615
 30
0.0
 11
0.0
 21
130.069872981
 31
0.0
  0
LINE
  8
0
 62
0
 10
2.5
 20
130.069872981
 30
0.0
 11
0.0
 21
130.069872981
 31
0.0
  0
LINE
  8
0
 62
0
 10
5.0
 20
134.4
 30
0.0
 11
2.5
 21
130.069872981
 31
0.0
  0
LINE
  8
0
 62
0
 10
2.5
 20
138.730127019
 30
0.0
 11
5.0
 21
134.4
 31
0.0
  0
LINE
  8
0
 62
0
 10
0.0
 20
138.730127019
 30
0.0
 11
2.5
 21
138.730127019
 31
0.0
  0
LINE
  8
0
 62
0
 10
0.0
 20
138.730127019
 30
0.0
 11
0.0
 21
142.135898385
 31
0.0
  0
LINE
  8
0
 62
0
 10
24.4
 20
201.6
 30
0.0
 11
21.9
 21
197.269872981
 31
0.0
  0
LINE
  8
0
 62
0
 10
21.9
 20
205.930127019
 30
0.0
 11
24.4
 21
201.6
 31
0.0
  0
LINE
  8
0
 62
0
 10
16.9
 20
205.930127019
 30
0.0
 11
21.9
 21
205.930127019
 31
0.0
  0
LINE
  8
0
 62
0
 10
14.4
 20
201.6
 30
0.0
 11
16.9
 21
205.930127019
 31
0.0
  0
LINE
  8
0
 62
0
 10
16.9
 20
197.269872981
 30
0.0
 11
14.4
 21
201.6
 31
0.0
  0
LINE
  8
0
 62
0
 10
21.9
 20
197.269872981
 30
0.0
 11
16.9
 21
197.269872981
 31
0.0
  0
LINE
  8
0
 62
0
 10
33.8
 20
201.6
 30
0.0
 11
36.3
 21
205.930127019
 31
0.0
  0
LINE
  8
0
 62
0
 10
36.3
 20
197.269872981
 30
0.0
 11
33.8
 21
201.6
 31
0.0
  0
LINE
  8
0
 62
0
 10
41.3
 20
197.269872981
 30
0.0
 11
36.3
 21
197.269872981
 31
0.0
  0
LINE
  8
0
 62
0
 10
43.8
 20
201.6
 30
0.0
 11
41.3
 21
197.269872981
 31
0.0
  0
LINE
  8
0
 62
0
 10
41.3
 20
205.930127019
 30
0.0
 11
43.8
 21
201.6
 31
0.0
  0
LINE
  8
0
 62
0
 10
36.3
 20
205.930127019
 30
0.0
 11
41.3
 21
205.930127019
 31
0.0
  0
LINE
  8
0
 62
0
 10
118.9
 20
197.269872981
 30
0.0
 11
113.9
 21
197.269872981
 31
0.0
  0
LINE
  8
0
 62
0
 10
121.4
 20
201.6
 30
0.0
 11
118.9
 21
197.269872981
 31
0.0
  0
LINE
  8
0
 62
0
 10
118.9
 20
205.930127019
 30
0.0
 11
121.4
 21
201.6
 31
0.0
  0
LINE
  8
0
 62
0
 10
113.9
 20
205.930127019
 30
0.0
 11
118.9
 21
205.930127019
 31
0.0
  0
LINE
  8
0
 62
0
 10
111.4
 20
201.6
 30
0.0
 11
113.9
 21
205.930127019
 31
0.0
  0
LINE
  8
0
 62
0
 10
113.9
 20
197.269872981
 30
0.0
 11
111.4
 21
201.6
 31
0.0
  0
LINE
  8
0
 62
0
 10
101.7
 20
218.4
 30
0.0
 11
104.2
 21
222.730127019
 31
0.0
  0
LINE
  8
0
 62
0
 10
104.2
 20
214.069872981
 30
0.0
 11
101.7
 21
218.4
 31
0.0
  0
LINE
  8
0
 62
0
 10
109.2
 20
214.069872981
 30
0.0
 11
104.2
 21
214.069872981
 31
0.0
  0
LINE
  8
0
 62
0
 10
111.7
 20
218.4
 30
0.0
 11
109.2
 21
214.069872981
 31
0.0
  0
LINE
  8
0
 62
0
 10
109.2
 20
222.730127019
 30
0.0
 11
111.7
 21
218.4
 31
0.0
  0
LINE
  8
0
 62
0
 10
104.2
 20
222.730127019
 30
0.0
 11
109.2
 21
222.730127019
 31
0.0
  0
LINE
  8
0
 62
0
 10
229.8
 20
214.532050808
 30
0.0
 11
235.8
 21
214.532050808
 31
0.0
  0
LINE
  8
0
 62
0
 10
232.8
 20
209.335898385
 30
0.0
 11
229.8
 21
214.532050808
 31
0.0
  0
LINE
  8
0
 62
0
 10
235.8
 20
214.532050808
 30
0.0
 11
232.8
 21
209.335898385
 31
0.0
  0
LINE
  8
0
 62
0
 10
186.8
 20
214.069872981
 30
0.0
 11
181.8
 21
214.069872981
 31
0.0
  0
LINE
  8
0
 62
0
 10
189.3
 20
218.4
 30
0.0
 11
186.8
 21
214.069872981
 31
0.0
  0
LINE
  8
0
 62
0
 10
186.8
 20
222.730127019
 30
0.0
 11
189.3
 21
218.4
 31
0.0
  0
LINE
  8
0
 62
0
 10
181.8
 20
222.730127019
 30
0.0
 11
186.8
 21
222.730127019
 31
0.0
  0
LINE
  8
0
 62
0
 10
179.3
 20
218.4
 30
0.0
 11
181.8
 21
222.730127019
 31
0.0
  0
LINE
  8
0
 62
0
 10
181.8
 20
214.069872981
 30
0.0
 11
179.3
 21
218.4
 31
0.0
  0
LINE
  8
0
 62
0
 10
232.8
 20
126.664101615
 30
0.0
 11
235.8
 21
121.467949192
 31
0.0
  0
LINE
  8
0
 62
0
 10
229.8
 20
121.467949192
 30
0.0
 11
232.8
 21
126.664101615
 31
0.0
  0
LINE
  8
0
 62
0
 10
235.8
 20
121.467949192
 30
0.0
 11
229.8
 21
121.467949192
 31
0.0
  0
LINE
  8
0
 62
0
 10
235.8
 20
188.667949192
 30
0.0
 11
229.8
 21
188.667949192
 31
0.0
  0
LINE
  8
0
 62
0
 10
232.8
 20
193.864101615
 30
0.0
 11
235.8
 21
188.667949192
 31
0.0
  0
LINE
  8
0
 62
0
 10
229.8
 20
188.667949192
 30
0.0
 11
232.8
 21
193.864101615
 31
0.0
  0
LINE
  8
0
 62
0
 10
226.1
 20
138.267949192
 30
0.0
 11
220.1
 21
138.267949192
 31
0.0
  0
LINE
  8
0
 62
0
 10
223.1
 20
143.464101615
 30
0.0
 11
226.1
 21
138.267949192
 31
0.0
  0
LINE
  8
0
 62
0
 10
220.1
 20
138.267949192
 30
0.0
 11
223.1
 21
143.464101615
 31
0.0
  0
LINE
  8
0
 62
0
 10
167.9
 20
104.667949192
 30
0.0
 11
161.9
 21
104.667949192
 31
0.0
  0
LINE
  8
0
 62
0
 10
164.9
 20
109.864101615
 30
0.0
 11
167.9
 21
104.667949192
 31
0.0
  0
LINE
  8
0
 62
0
 10
161.9
 20
104.667949192
 30
0.0
 11
164.9
 21
109.864101615
 31
0.0
  0
LINE
  8
0
 62
0
 10
126.1
 20
109.864101615
 30
0.0
 11
129.1
 21
104.667949192
 31
0.0
  0
LINE
  8
0
 62
0
 10
123.1
 20
104.667949192
 30
0.0
 11
126.1
 21
109.864101615
 31
0.0
  0
LINE
  8
0
 62
0
 10
129.1
 20
104.667949192
 30
0.0
 11
123.1
 21
104.667949192
 31
0.0
  0
LINE
  8
0
 62
0
 10
159.9
 20
117.6
 30
0.0
 11
162.4
 21
121.930127019
 31
0.0
  0
LINE
  8
0
 62
0
 10
162.4
 20
113.269872981
 30
0.0
 11
159.9
 21
117.6
 31
0.0
  0
LINE
  8
0
 62
0
 10
167.4
 20
113.269872981
 30
0.0
 11
162.4
 21
113.269872981
 31
0.0
  0
LINE
  8
0
 62
0
 10
169.9
 20
117.6
 30
0.0
 11
167.4
 21
113.269872981
 31
0.0
  0
LINE
  8
0
 62
0
 10
167.4
 20
121.930127019
 30
0.0
 11
169.9
 21
117.6
 31
0.0
  0
LINE
  8
0
 62
0
 10
162.4
 20
121.930127019
 30
0.0
 11
167.4
 21
121.930127019
 31
0.0
  0
LINE
  8
0
 62
0
 10
121.1
 20
117.6
 30
0.0
 11
123.6
 21
121.930127019
 31
0.0
  0
LINE
  8
0
 62
0
 10
123.6
 20
113.269872981
 30
0.0
 11
121.1
 21
117.6
 31
0.0
  0
LINE
  8
0
 62
0
 10
128.6
 20
113.269872981
 30
0.0
 11
123.6
 21
113.269872981
 31
0.0
  0
LINE
  8
0
 62
0
 10
131.1
 20
117.6
 30
0.0
 11
128.6
 21
113.269872981
 31
0.0
  0
LINE
  8
0
 62
0
 10
128.6
 20
121.930127019
 30
0.0
 11
131.1
 21
117.6
 31
0.0
  0
LINE
  8
0
 62
0
 10
123.6
 20
121.930127019
 30
0.0
 11
128.6
 21
121.930127019
 31
0.0
  0
LINE
  8
0
 62
0
 10
82.3
 20
117.6
 30
0.0
 11
84.8
 21
121.930127019
 31
0.0
  0
LINE
  8
0
 62
0
 10
84.8
 20
113.269872981
 30
0.0
 11
82.3
 21
117.6
 31
0.0
  0
LINE
  8
0
 62
0
 10
89.8
 20
113.269872981
 30
0.0
 11
84.8
 21
113.269872981
 31
0.0
  0
LINE
  8
0
 62
0
 10
92.3
 20
117.6
 30
0.0
 11
89.8
 21
113.269872981
 31
0.0
  0
LINE
  8
0
 62
0
 10
89.8
 20
121.930127019
 30
0.0
 11
92.3
 21
117.6
 31
0.0
  0
LINE
  8
0
 62
0
 10
84.8
 20
121.930127019
 30
0.0
 11
89.8
 21
121.930127019
 31
0.0
  0
LINE
  8
0
 62
0
 10
87.3
 20
109.864101615
 30
0.0
 11
90.3
 21
104.667949192
 31
0.0
  0
LINE
  8
0
 62
0
 10
84.3
 20
104.667949192
 30
0.0
 11
87.3
 21
109.864101615
 31
0.0
  0
LINE
  8
0
 62
0
 10
90.3
 20
104.667949192
 30
0.0
 11
84.3
 21
104.667949192
 31
0.0
  0
LINE
  8
0
 62
0
 10
100.0
 20
113.732050808
 30
0.0
 11
97.0
 21
108.535898385
 31
0.0
  0
LINE
  8
0
 62
0
 10
94.0
 20
113.732050808
 30
0.0
 11
100.0
 21
113.732050808
 31
0.0
  0
LINE
  8
0
 62
0
 10
97.0
 20
108.535898385
 30
0.0
 11
94.0
 21
113.732050808
 31
0.0
  0
LINE
  8
0
 62
0
 10
119.4
 20
113.732050808
 30
0.0
 11
116.4
 21
108.535898385
 31
0.0
  0
LINE
  8
0
 62
0
 10
113.4
 20
113.732050808
 30
0.0
 11
119.4
 21
113.732050808
 31
0.0
  0
LINE
  8
0
 62
0
 10
116.4
 20
108.535898385
 30
0.0
 11
113.4
 21
113.732050808
 31
0.0
  0
LINE
  8
0
 62
0
 10
14.7
 20
117.6
 30
0.0
 11
12.2
 21
113.269872981
 31
0.0
  0
LINE
  8
0
 62
0
 10
12.2
 20
121.930127019
 30
0.0
 11
14.7
 21
117.6
 31
0.0
  0
LINE
  8
0
 62
0
 10
7.2
 20
121.930127019
 30
0.0
 11
12.2
 21
121.930127019
 31
0.0
  0
LINE
  8
0
 62
0
 10
4.7
 20
117.6
 30
0.0
 11
7.2
 21
121.930127019
 31
0.0
  0
LINE
  8
0
 62
0
 10
7.2
 20
113.269872981
 30
0.0
 11
4.7
 21
117.6
 31
0.0
  0
LINE
  8
0
 62
0
 10
12.2
 20
113.269872981
 30
0.0
 11
7.2
 21
113.269872981
 31
0.0
  0
LINE
  8
0
 62
0
 10
31.6
 20
113.269872981
 30
0.0
 11
26.6
 21
113.269872981
 31
0.0
  0
LINE
  8
0
 62
0
 10
34.1
 20
117.6
 30
0.0
 11
31.6
 21
113.269872981
 31
0.0
  0
LINE
  8
0
 62
0
 10
31.6
 20
121.930127019
 30
0.0
 11
34.1
 21
117.6
 31
0.0
  0
LINE
  8
0
 62
0
 10
26.6
 20
121.930127019
 30
0.0
 11
31.6
 21
121.930127019
 31
0.0
  0
LINE
  8
0
 62
0
 10
24.1
 20
117.6
 30
0.0
 11
26.6
 21
121.930127019
 31
0.0
  0
LINE
  8
0
 62
0
 10
26.6
 20
113.269872981
 30
0.0
 11
24.1
 21
117.6
 31
0.0
  0
LINE
  8
0
 62
0
 10
35.8
 20
113.732050808
 30
0.0
 11
41.8
 21
113.732050808
 31
0.0
  0
LINE
  8
0
 62
0
 10
38.8
 20
108.535898385
 30
0.0
 11
35.8
 21
113.732050808
 31
0.0
  0
LINE
  8
0
 62
0
 10
41.8
 20
113.732050808
 30
0.0
 11
38.8
 21
108.535898385
 31
0.0
  0
LINE
  8
0
 62
0
 10
6.7
 20
138.267949192
 30
0.0
 11
9.7
 21
143.464101615
 31
0.0
  0
LINE
  8
0
 62
0
 10
12.7
 20
138.267949192
 30
0.0
 11
6.7
 21
138.267949192
 31
0.0
  0
LINE
  8
0
 62
0
 10
9.7
 20
143.464101615
 30
0.0
 11
12.7
 21
138.267949192
 31
0.0
  0
LINE
  8
0
 62
0
 10
90.3
 20
138.267949192
 30
0.0
 11
84.3
 21
138.267949192
 31
0.0
  0
LINE
  8
0
 62
0
 10
87.3
 20
143.464101615
 30
0.0
 11
90.3
 21
138.267949192
 31
0.0
  0
LINE
  8
0
 62
0
 10
84.3
 20
138.267949192
 30
0.0
 11
87.3
 21
143.464101615
 31
0.0
  0
LINE
  8
0
 62
0
 10
64.9
 20
130.532050808
 30
0.0
 11
70.9
 21
130.532050808
 31
0.0
  0
LINE
  8
0
 62
0
 10
67.9
 20
125.335898385
 30
0.0
 11
64.9
 21
130.532050808
 31
0.0
  0
LINE
  8
0
 62
0
 10
70.9
 20
130.532050808
 30
0.0
 11
67.9
 21
125.335898385
 31
0.0
  0
LINE
  8
0
 62
0
 10
80.6
 20
121.467949192
 30
0.0
 11
74.6
 21
121.467949192
 31
0.0
  0
LINE
  8
0
 62
0
 10
77.6
 20
126.664101615
 30
0.0
 11
80.6
 21
121.467949192
 31
0.0
  0
LINE
  8
0
 62
0
 10
74.6
 20
121.467949192
 30
0.0
 11
77.6
 21
126.664101615
 31
0.0
  0
LINE
  8
0
 62
0
 10
87.3
 20
125.335898385
 30
0.0
 11
84.3
 21
130.532050808
 31
0.0
  0
LINE
  8
0
 62
0
 10
90.3
 20
130.532050808
 30
0.0
 11
87.3
 21
125.335898385
 31
0.0
  0
LINE
  8
0
 62
0
 10
84.3
 20
130.532050808
 30
0.0
 11
90.3
 21
130.532050808
 31
0.0
  0
LINE
  8
0
 62
0
 10
55.7
 20
130.069872981
 30
0.0
 11
53.2
 21
134.4
 31
0.0
  0
LINE
  8
0
 62
0
 10
60.7
 20
130.069872981
 30
0.0
 11
55.7
 21
130.069872981
 31
0.0
  0
LINE
  8
0
 62
0
 10
63.2
 20
134.4
 30
0.0
 11
60.7
 21
130.069872981
 31
0.0
  0
LINE
  8
0
 62
0
 10
60.7
 20
138.730127019
 30
0.0
 11
63.2
 21
134.4
 31
0.0
  0
LINE
  8
0
 62
0
 10
55.7
 20
138.730127019
 30
0.0
 11
60.7
 21
138.730127019
 31
0.0
  0
LINE
  8
0
 62
0
 10
53.2
 20
134.4
 30
0.0
 11
55.7
 21
138.730127019
 31
0.0
  0
LINE
  8
0
 62
0
 10
19.4
 20
126.664101615
 30
0.0
 11
22.4
 21
121.467949192
 31
0.0
  0
LINE
  8
0
 62
0
 10
16.4
 20
121.467949192
 30
0.0
 11
19.4
 21
126.664101615
 31
0.0
  0
LINE
  8
0
 62
0
 10
22.4
 20
121.467949192
 30
0.0
 11
16.4
 21
121.467949192
 31
0.0
  0
LINE
  8
0
 62
0
 10
33.8
 20
134.4
 30
0.0
 11
36.3
 21
138.730127019
 31
0.0
  0
LINE
  8
0
 62
0
 10
36.3
 20
130.069872981
 30
0.0
 11
33.8
 21
134.4
 31
0.0
  0
LINE
  8
0
 62
0
 10
41.3
 20
130.069872981
 30
0.0
 11
36.3
 21
130.069872981
 31
0.0
  0
LINE
  8
0
 62
0
 10
43.8
 20
134.4
 30
0.0
 11
41.3
 21
130.069872981
 31
0.0
  0
LINE
  8
0
 62
0
 10
41.3
 20
138.730127019
 30
0.0
 11
43.8
 21
134.4
 31
0.0
  0
LINE
  8
0
 62
0
 10
36.3
 20
138.730127019
 30
0.0
 11
41.3
 21
138.730127019
 31
0.0
  0
LINE
  8
0
 62
0
 10
6.7
 20
130.532050808
 30
0.0
 11
12.7
 21
130.532050808
 31
0.0
  0
LINE
  8
0
 62
0
 10
9.7
 20
125.335898385
 30
0.0
 11
6.7
 21
130.532050808
 31
0.0
  0
LINE
  8
0
 62
0
 10
12.7
 20
130.532050808
 30
0.0
 11
9.7
 21
125.335898385
 31
0.0
  0
LINE
  8
0
 62
0
 10
152.2
 20
147.332050808
 30
0.0
 11
158.2
 21
147.332050808
 31
0.0
  0
LINE
  8
0
 62
0
 10
155.2
 20
142.135898385
 30
0.0
 11
152.2
 21
147.332050808
 31
0.0
  0
LINE
  8
0
 62
0
 10
158.2
 20
147.332050808
 30
0.0
 11
155.2
 21
142.135898385
 31
0.0
  0
LINE
  8
0
 62
0
 10
142.5
 20
130.532050808
 30
0.0
 11
148.5
 21
130.532050808
 31
0.0
  0
LINE
  8
0
 62
0
 10
145.5
 20
125.335898385
 30
0.0
 11
142.5
 21
130.532050808
 31
0.0
  0
LINE
  8
0
 62
0
 10
148.5
 20
130.532050808
 30
0.0
 11
145.5
 21
125.335898385
 31
0.0
  0
LINE
  8
0
 62
0
 10
94.5
 20
130.069872981
 30
0.0
 11
92.0
 21
134.4
 31
0.0
  0
LINE
  8
0
 62
0
 10
99.5
 20
130.069872981
 30
0.0
 11
94.5
 21
130.069872981
 31
0.0
  0
LINE
  8
0
 62
0
 10
102.0
 20
134.4
 30
0.0
 11
99.5
 21
130.069872981
 31
0.0
  0
LINE
  8
0
 62
0
 10
99.5
 20
138.730127019
 30
0.0
 11
102.0
 21
134.4
 31
0.0
  0
LINE
  8
0
 62
0
 10
94.5
 20
138.730127019
 30
0.0
 11
99.5
 21
138.730127019
 31
0.0
  0
LINE
  8
0
 62
0
 10
92.0
 20
134.4
 30
0.0
 11
94.5
 21
138.730127019
 31
0.0
  0
LINE
  8
0
 62
0
 10
109.7
 20
130.532050808
 30
0.0
 11
106.7
 21
125.335898385
 31
0.0
  0
LINE
  8
0
 62
0
 10
103.7
 20
130.532050808
 30
0.0
 11
109.7
 21
130.532050808
 31
0.0
  0
LINE
  8
0
 62
0
 10
106.7
 20
125.335898385
 30
0.0
 11
103.7
 21
130.532050808
 31
0.0
  0
LINE
  8
0
 62
0
 10
97.0
 20
126.664101615
 30
0.0
 11
100.0
 21
121.467949192
 31
0.0
  0
LINE
  8
0
 62
0
 10
94.0
 20
121.467949192
 30
0.0
 11
97.0
 21
126.664101615
 31
0.0
  0
LINE
  8
0
 62
0
 10
100.0
 20
121.467949192
 30
0.0
 11
94.0
 21
121.467949192
 31
0.0
  0
LINE
  8
0
 62
0
 10
150.5
 20
117.6
 30
0.0
 11
148.0
 21
113.269872981
 31
0.0
  0
LINE
  8
0
 62
0
 10
148.0
 20
121.930127019
 30
0.0
 11
150.5
 21
117.6
 31
0.0
  0
LINE
  8
0
 62
0
 10
143.0
 20
121.930127019
 30
0.0
 11
148.0
 21
121.930127019
 31
0.0
  0
LINE
  8
0
 62
0
 10
140.5
 20
117.6
 30
0.0
 11
143.0
 21
121.930127019
 31
0.0
  0
LINE
  8
0
 62
0
 10
143.0
 20
113.269872981
 30
0.0
 11
140.5
 21
117.6
 31
0.0
  0
LINE
  8
0
 62
0
 10
148.0
 20
113.269872981
 30
0.0
 11
143.0
 21
113.269872981
 31
0.0
  0
LINE
  8
0
 62
0
 10
22.4
 20
155.067949192
 30
0.0
 11
16.4
 21
155.067949192
 31
0.0
  0
LINE
  8
0
 62
0
 10
19.4
 20
160.264101615
 30
0.0
 11
22.4
 21
155.067949192
 31
0.0
  0
LINE
  8
0
 62
0
 10
16.4
 20
155.067949192
 30
0.0
 11
19.4
 21
160.264101615
 31
0.0
  0
LINE
  8
0
 62
0
 10
22.4
 20
147.332050808
 30
0.0
 11
19.4
 21
142.135898385
 31
0.0
  0
LINE
  8
0
 62
0
 10
16.4
 20
147.332050808
 30
0.0
 11
22.4
 21
147.332050808
 31
0.0
  0
LINE
  8
0
 62
0
 10
19.4
 20
142.135898385
 30
0.0
 11
16.4
 21
147.332050808
 31
0.0
  0
LINE
  8
0
 62
0
 10
32.1
 20
164.132050808
 30
0.0
 11
29.1
 21
158.935898385
 31
0.0
  0
LINE
  8
0
 62
0
 10
26.1
 20
164.132050808
 30
0.0
 11
32.1
 21
164.132050808
 31
0.0
  0
LINE
  8
0
 62
0
 10
29.1
 20
158.935898385
 30
0.0
 11
26.1
 21
164.132050808
 31
0.0
  0
LINE
  8
0
 62
0
 10
31.6
 20
146.869872981
 30
0.0
 11
26.6
 21
146.869872981
 31
0.0
  0
LINE
  8
0
 62
0
 10
34.1
 20
151.2
 30
0.0
 11
31.6
 21
146.869872981
 31
0.0
  0
LINE
  8
0
 62
0
 10
31.6
 20
155.530127019
 30
0.0
 11
34.1
 21
151.2
 31
0.0
  0
LINE
  8
0
 62
0
 10
26.6
 20
155.530127019
 30
0.0
 11
31.6
 21
155.530127019
 31
0.0
  0
LINE
  8
0
 62
0
 10
24.1
 20
151.2
 30
0.0
 11
26.6
 21
155.530127019
 31
0.0
  0
LINE
  8
0
 62
0
 10
26.6
 20
146.869872981
 30
0.0
 11
24.1
 21
151.2
 31
0.0
  0
LINE
  8
0
 62
0
 10
48.5
 20
177.064101615
 30
0.0
 11
51.5
 21
171.867949192
 31
0.0
  0
LINE
  8
0
 62
0
 10
45.5
 20
171.867949192
 30
0.0
 11
48.5
 21
177.064101615
 31
0.0
  0
LINE
  8
0
 62
0
 10
51.5
 20
171.867949192
 30
0.0
 11
45.5
 21
171.867949192
 31
0.0
  0
LINE
  8
0
 62
0
 10
43.5
 20
151.2
 30
0.0
 11
46.0
 21
155.530127019
 31
0.0
  0
LINE
  8
0
 62
0
 10
46.0
 20
146.869872981
 30
0.0
 11
43.5
 21
151.2
 31
0.0
  0
LINE
  8
0
 62
0
 10
51.0
 20
146.869872981
 30
0.0
 11
46.0
 21
146.869872981
 31
0.0
  0
LINE
  8
0
 62
0
 10
53.5
 20
151.2
 30
0.0
 11
51.0
 21
146.869872981
 31
0.0
  0
LINE
  8
0
 62
0
 10
51.0
 20
155.530127019
 30
0.0
 11
53.5
 21
151.2
 31
0.0
  0
LINE
  8
0
 62
0
 10
46.0
 20
155.530127019
 30
0.0
 11
51.0
 21
155.530127019
 31
0.0
  0
LINE
  8
0
 62
0
 10
24.4
 20
134.4
 30
0.0
 11
21.9
 21
130.069872981
 31
0.0
  0
LINE
  8
0
 62
0
 10
21.9
 20
138.730127019
 30
0.0
 11
24.4
 21
134.4
 31
0.0
  0
LINE
  8
0
 62
0
 10
16.9
 20
138.730127019
 30
0.0
 11
21.9
 21
138.730127019
 31
0.0
  0
LINE
  8
0
 62
0
 10
14.4
 20
134.4
 30
0.0
 11
16.9
 21
138.730127019
 31
0.0
  0
LINE
  8
0
 62
0
 10
16.9
 20
130.069872981
 30
0.0
 11
14.4
 21
134.4
 31
0.0
  0
LINE
  8
0
 62
0
 10
21.9
 20
130.069872981
 30
0.0
 11
16.9
 21
130.069872981
 31
0.0
  0
LINE
  8
0
 62
0
 10
82.3
 20
151.2
 30
0.0
 11
84.8
 21
155.530127019
 31
0.0
  0
LINE
  8
0
 62
0
 10
84.8
 20
146.869872981
 30
0.0
 11
82.3
 21
151.2
 31
0.0
  0
LINE
  8
0
 62
0
 10
89.8
 20
146.869872981
 30
0.0
 11
84.8
 21
146.869872981
 31
0.0
  0
LINE
  8
0
 62
0
 10
92.3
 20
151.2
 30
0.0
 11
89.8
 21
146.869872981
 31
0.0
  0
LINE
  8
0
 62
0
 10
89.8
 20
155.530127019
 30
0.0
 11
92.3
 21
151.2
 31
0.0
  0
LINE
  8
0
 62
0
 10
84.8
 20
155.530127019
 30
0.0
 11
89.8
 21
155.530127019
 31
0.0
  0
LINE
  8
0
 62
0
 10
72.9
 20
151.2
 30
0.0
 11
70.4
 21
146.869872981
 31
0.0
  0
LINE
  8
0
 62
0
 10
70.4
 20
155.530127019
 30
0.0
 11
72.9
 21
151.2
 31
0.0
  0
LINE
  8
0
 62
0
 10
65.4
 20
155.530127019
 30
0.0
 11
70.4
 21
155.530127019
 31
0.0
  0
LINE
  8
0
 62
0
 10
62.9
 20
151.2
 30
0.0
 11
65.4
 21
155.530127019
 31
0.0
  0
LINE
  8
0
 62
0
 10
65.4
 20
146.869872981
 30
0.0
 11
62.9
 21
151.2
 31
0.0
  0
LINE
  8
0
 62
0
 10
70.4
 20
146.869872981
 30
0.0
 11
65.4
 21
146.869872981
 31
0.0
  0
LINE
  8
0
 62
0
 10
70.9
 20
138.267949192
 30
0.0
 11
64.9
 21
138.267949192
 31
0.0
  0
LINE
  8
0
 62
0
 10
67.9
 20
143.464101615
 30
0.0
 11
70.9
 21
138.267949192
 31
0.0
  0
LINE
  8
0
 62
0
 10
64.9
 20
138.267949192
 30
0.0
 11
67.9
 21
143.464101615
 31
0.0
  0
LINE
  8
0
 62
0
 10
77.6
 20
142.135898385
 30
0.0
 11
74.6
 21
147.332050808
 31
0.0
  0
LINE
  8
0
 62
0
 10
80.6
 20
147.332050808
 30
0.0
 11
77.6
 21
142.135898385
 31
0.0
  0
LINE
  8
0
 62
0
 10
74.6
 20
147.332050808
 30
0.0
 11
80.6
 21
147.332050808
 31
0.0
  0
LINE
  8
0
 62
0
 10
77.6
 20
160.264101615
 30
0.0
 11
80.6
 21
155.067949192
 31
0.0
  0
LINE
  8
0
 62
0
 10
74.6
 20
155.067949192
 30
0.0
 11
77.6
 21
160.264101615
 31
0.0
  0
LINE
  8
0
 62
0
 10
80.6
 20
155.067949192
 30
0.0
 11
74.6
 21
155.067949192
 31
0.0
  0
LINE
  8
0
 62
0
 10
61.2
 20
147.332050808
 30
0.0
 11
58.2
 21
142.135898385
 31
0.0
  0
LINE
  8
0
 62
0
 10
55.2
 20
147.332050808
 30
0.0
 11
61.2
 21
147.332050808
 31
0.0
  0
LINE
  8
0
 62
0
 10
58.2
 20
142.135898385
 30
0.0
 11
55.2
 21
147.332050808
 31
0.0
  0
LINE
  8
0
 62
0
 10
80.1
 20
163.669872981
 30
0.0
 11
75.1
 21
163.669872981
 31
0.0
  0
LINE
  8
0
 62
0
 10
82.6
 20
168.0
 30
0.0
 11
80.1
 21
163.669872981
 31
0.0
  0
LINE
  8
0
 62
0
 10
80.1
 20
172.330127019
 30
0.0
 11
82.6
 21
168.0
 31
0.0
  0
LINE
  8
0
 62
0
 10
75.1
 20
172.330127019
 30
0.0
 11
80.1
 21
172.330127019
 31
0.0
  0
LINE
  8
0
 62
0
 10
72.6
 20
168.0
 30
0.0
 11
75.1
 21
172.330127019
 31
0.0
  0
LINE
  8
0
 62
0
 10
75.1
 20
163.669872981
 30
0.0
 11
72.6
 21
168.0
 31
0.0
  0
LINE
  8
0
 62
0
 10
63.2
 20
168.0
 30
0.0
 11
60.7
 21
163.669872981
 31
0.0
  0
LINE
  8
0
 62
0
 10
60.7
 20
172.330127019
 30
0.0
 11
63.2
 21
168.0
 31
0.0
  0
LINE
  8
0
 62
0
 10
55.7
 20
172.330127019
 30
0.0
 11
60.7
 21
172.330127019
 31
0.0
  0
LINE
  8
0
 62
0
 10
53.2
 20
168.0
 30
0.0
 11
55.7
 21
172.330127019
 31
0.0
  0
LINE
  8
0
 62
0
 10
55.7
 20
163.669872981
 30
0.0
 11
53.2
 21
168.0
 31
0.0
  0
LINE
  8
0
 62
0
 10
60.7
 20
163.669872981
 30
0.0
 11
55.7
 21
163.669872981
 31
0.0
  0
LINE
  8
0
 62
0
 10
12.7
 20
171.867949192
 30
0.0
 11
6.7
 21
171.867949192
 31
0.0
  0
LINE
  8
0
 62
0
 10
9.7
 20
177.064101615
 30
0.0
 11
12.7
 21
171.867949192
 31
0.0
  0
LINE
  8
0
 62
0
 10
6.7
 20
171.867949192
 30
0.0
 11
9.7
 21
177.064101615
 31
0.0
  0
LINE
  8
0
 62
0
 10
6.7
 20
164.132050808
 30
0.0
 11
12.7
 21
164.132050808
 31
0.0
  0
LINE
  8
0
 62
0
 10
9.7
 20
158.935898385
 30
0.0
 11
6.7
 21
164.132050808
 31
0.0
  0
LINE
  8
0
 62
0
 10
12.7
 20
164.132050808
 30
0.0
 11
9.7
 21
158.935898385
 31
0.0
  0
LINE
  8
0
 62
0
 10
7.2
 20
155.530127019
 30
0.0
 11
12.2
 21
155.530127019
 31
0.0
  0
LINE
  8
0
 62
0
 10
4.7
 20
151.2
 30
0.0
 11
7.2
 21
155.530127019
 31
0.0
  0
LINE
  8
0
 62
0
 10
7.2
 20
146.869872981
 30
0.0
 11
4.7
 21
151.2
 31
0.0
  0
LINE
  8
0
 62
0
 10
12.2
 20
146.869872981
 30
0.0
 11
7.2
 21
146.869872981
 31
0.0
  0
LINE
  8
0
 62
0
 10
14.7
 20
151.2
 30
0.0
 11
12.2
 21
146.869872981
 31
0.0
  0
LINE
  8
0
 62
0
 10
12.2
 20
155.530127019
 30
0.0
 11
14.7
 21
151.2
 31
0.0
  0
LINE
  8
0
 62
0
 10
48.5
 20
125.335898385
 30
0.0
 11
45.5
 21
130.532050808
 31
0.0
  0
LINE
  8
0
 62
0
 10
51.5
 20
130.532050808
 30
0.0
 11
48.5
 21
125.335898385
 31
0.0
  0
LINE
  8
0
 62
0
 10
45.5
 20
130.532050808
 30
0.0
 11
51.5
 21
130.532050808
 31
0.0
  0
LINE
  8
0
 62
0
 10
140.5
 20
151.2
 30
0.0
 11
143.0
 21
155.530127019
 31
0.0
  0
LINE
  8
0
 62
0
 10
143.0
 20
146.869872981
 30
0.0
 11
140.5
 21
151.2
 31
0.0
  0
LINE
  8
0
 62
0
 10
148.0
 20
146.869872981
 30
0.0
 11
143.0
 21
146.869872981
 31
0.0
  0
LINE
  8
0
 62
0
 10
150.5
 20
151.2
 30
0.0
 11
148.0
 21
146.869872981
 31
0.0
  0
LINE
  8
0
 62
0
 10
148.0
 20
155.530127019
 30
0.0
 11
150.5
 21
151.2
 31
0.0
  0
LINE
  8
0
 62
0
 10
143.0
 20
155.530127019
 30
0.0
 11
148.0
 21
155.530127019
 31
0.0
  0
LINE
  8
0
 62
0
 10
145.5
 20
143.464101615
 30
0.0
 11
148.5
 21
138.267949192
 31
0.0
  0
LINE
  8
0
 62
0
 10
142.5
 20
138.267949192
 30
0.0
 11
145.5
 21
143.464101615
 31
0.0
  0
LINE
  8
0
 62
0
 10
148.5
 20
138.267949192
 30
0.0
 11
142.5
 21
138.267949192
 31
0.0
  0
LINE
  8
0
 62
0
 10
119.4
 20
147.332050808
 30
0.0
 11
116.4
 21
142.135898385
 31
0.0
  0
LINE
  8
0
 62
0
 10
113.4
 20
147.332050808
 30
0.0
 11
119.4
 21
147.332050808
 31
0.0
  0
LINE
  8
0
 62
0
 10
116.4
 20
142.135898385
 30
0.0
 11
113.4
 21
147.332050808
 31
0.0
  0
LINE
  8
0
 62
0
 10
100.0
 20
155.067949192
 30
0.0
 11
94.0
 21
155.067949192
 31
0.0
  0
LINE
  8
0
 62
0
 10
97.0
 20
160.264101615
 30
0.0
 11
100.0
 21
155.067949192
 31
0.0
  0
LINE
  8
0
 62
0
 10
94.0
 20
155.067949192
 30
0.0
 11
97.0
 21
160.264101615
 31
0.0
  0
LINE
  8
0
 62
0
 10
94.0
 20
147.332050808
 30
0.0
 11
100.0
 21
147.332050808
 31
0.0
  0
LINE
  8
0
 62
0
 10
97.0
 20
142.135898385
 30
0.0
 11
94.0
 21
147.332050808
 31
0.0
  0
LINE
  8
0
 62
0
 10
100.0
 20
147.332050808
 30
0.0
 11
97.0
 21
142.135898385
 31
0.0
  0
LINE
  8
0
 62
0
 10
80.1
 20
130.069872981
 30
0.0
 11
75.1
 21
130.069872981
 31
0.0
  0
LINE
  8
0
 62
0
 10
82.6
 20
134.4
 30
0.0
 11
80.1
 21
130.069872981
 31
0.0
  0
LINE
  8
0
 62
0
 10
80.1
 20
138.730127019
 30
0.0
 11
82.6
 21
134.4
 31
0.0
  0
LINE
  8
0
 62
0
 10
75.1
 20
138.730127019
 30
0.0
 11
80.1
 21
138.730127019
 31
0.0
  0
LINE
  8
0
 62
0
 10
72.6
 20
134.4
 30
0.0
 11
75.1
 21
138.730127019
 31
0.0
  0
LINE
  8
0
 62
0
 10
75.1
 20
130.069872981
 30
0.0
 11
72.6
 21
134.4
 31
0.0
  0
LINE
  8
0
 62
0
 10
191.5
 20
163.669872981
 30
0.0
 11
189.0
 21
168.0
 31
0.0
  0
LINE
  8
0
 62
0
 10
196.5
 20
163.669872981
 30
0.0
 11
191.5
 21
163.669872981
 31
0.0
  0
LINE
  8
0
 62
0
 10
199.0
 20
168.0
 30
0.0
 11
196.5
 21
163.669872981
 31
0.0
  0
LINE
  8
0
 62
0
 10
196.5
 20
172.330127019
 30
0.0
 11
199.0
 21
168.0
 31
0.0
  0
LINE
  8
0
 62
0
 10
191.5
 20
172.330127019
 30
0.0
 11
196.5
 21
172.330127019
 31
0.0
  0
LINE
  8
0
 62
0
 10
189.0
 20
168.0
 30
0.0
 11
191.5
 21
172.330127019
 31
0.0
  0
LINE
  8
0
 62
0
 10
150.2
 20
168.0
 30
0.0
 11
152.7
 21
172.330127019
 31
0.0
  0
LINE
  8
0
 62
0
 10
152.7
 20
163.669872981
 30
0.0
 11
150.2
 21
168.0
 31
0.0
  0
LINE
  8
0
 62
0
 10
157.7
 20
163.669872981
 30
0.0
 11
152.7
 21
163.669872981
 31
0.0
  0
LINE
  8
0
 62
0
 10
160.2
 20
168.0
 30
0.0
 11
157.7
 21
163.669872981
 31
0.0
  0
LINE
  8
0
 62
0
 10
157.7
 20
172.330127019
 30
0.0
 11
160.2
 21
168.0
 31
0.0
  0
LINE
  8
0
 62
0
 10
152.7
 20
172.330127019
 30
0.0
 11
157.7
 21
172.330127019
 31
0.0
  0
LINE
  8
0
 62
0
 10
106.7
 20
177.064101615
 30
0.0
 11
109.7
 21
171.867949192
 31
0.0
  0
LINE
  8
0
 62
0
 10
103.7
 20
171.867949192
 30
0.0
 11
106.7
 21
177.064101615
 31
0.0
  0
LINE
  8
0
 62
0
 10
109.7
 20
171.867949192
 30
0.0
 11
103.7
 21
171.867949192
 31
0.0
  0
LINE
  8
0
 62
0
 10
113.9
 20
163.669872981
 30
0.0
 11
111.4
 21
168.0
 31
0.0
  0
LINE
  8
0
 62
0
 10
118.9
 20
163.669872981
 30
0.0
 11
113.9
 21
163.669872981
 31
0.0
  0
LINE
  8
0
 62
0
 10
121.4
 20
168.0
 30
0.0
 11
118.9
 21
163.669872981
 31
0.0
  0
LINE
  8
0
 62
0
 10
118.9
 20
172.330127019
 30
0.0
 11
121.4
 21
168.0
 31
0.0
  0
LINE
  8
0
 62
0
 10
113.9
 20
172.330127019
 30
0.0
 11
118.9
 21
172.330127019
 31
0.0
  0
LINE
  8
0
 62
0
 10
111.4
 20
168.0
 30
0.0
 11
113.9
 21
172.330127019
 31
0.0
  0
LINE
  8
0
 62
0
 10
119.4
 20
155.067949192
 30
0.0
 11
113.4
 21
155.067949192
 31
0.0
  0
LINE
  8
0
 62
0
 10
116.4
 20
160.264101615
 30
0.0
 11
119.4
 21
155.067949192
 31
0.0
  0
LINE
  8
0
 62
0
 10
113.4
 20
155.067949192
 30
0.0
 11
116.4
 21
160.264101615
 31
0.0
  0
LINE
  8
0
 62
0
 10
101.7
 20
151.2
 30
0.0
 11
104.2
 21
155.530127019
 31
0.0
  0
LINE
  8
0
 62
0
 10
104.2
 20
146.869872981
 30
0.0
 11
101.7
 21
151.2
 31
0.0
  0
LINE
  8
0
 62
0
 10
109.2
 20
146.869872981
 30
0.0
 11
104.2
 21
146.869872981
 31
0.0
  0
LINE
  8
0
 62
0
 10
111.7
 20
151.2
 30
0.0
 11
109.2
 21
146.869872981
 31
0.0
  0
LINE
  8
0
 62
0
 10
109.2
 20
155.530127019
 30
0.0
 11
111.7
 21
151.2
 31
0.0
  0
LINE
  8
0
 62
0
 10
104.2
 20
155.530127019
 30
0.0
 11
109.2
 21
155.530127019
 31
0.0
  0
LINE
  8
0
 62
0
 10
148.5
 20
171.867949192
 30
0.0
 11
142.5
 21
171.867949192
 31
0.0
  0
LINE
  8
0
 62
0
 10
145.5
 20
177.064101615
 30
0.0
 11
148.5
 21
171.867949192
 31
0.0
  0
LINE
  8
0
 62
0
 10
142.5
 20
171.867949192
 30
0.0
 11
145.5
 21
177.064101615
 31
0.0
  0
LINE
  8
0
 62
0
 10
123.1
 20
171.867949192
 30
0.0
 11
126.1
 21
177.064101615
 31
0.0
  0
LINE
  8
0
 62
0
 10
129.1
 20
171.867949192
 30
0.0
 11
123.1
 21
171.867949192
 31
0.0
  0
LINE
  8
0
 62
0
 10
126.1
 20
177.064101615
 30
0.0
 11
129.1
 21
171.867949192
 31
0.0
  0
LINE
  8
0
 62
0
 10
148.5
 20
164.132050808
 30
0.0
 11
145.5
 21
158.935898385
 31
0.0
  0
LINE
  8
0
 62
0
 10
142.5
 20
164.132050808
 30
0.0
 11
148.5
 21
164.132050808
 31
0.0
  0
LINE
  8
0
 62
0
 10
145.5
 20
158.935898385
 30
0.0
 11
142.5
 21
164.132050808
 31
0.0
  0
LINE
  8
0
 62
0
 10
126.1
 20
158.935898385
 30
0.0
 11
123.1
 21
164.132050808
 31
0.0
  0
LINE
  8
0
 62
0
 10
129.1
 20
164.132050808
 30
0.0
 11
126.1
 21
158.935898385
 31
0.0
  0
LINE
  8
0
 62
0
 10
123.1
 20
164.132050808
 30
0.0
 11
129.1
 21
164.132050808
 31
0.0
  0
LINE
  8
0
 62
0
 10
135.8
 20
160.264101615
 30
0.0
 11
138.8
 21
155.067949192
 31
0.0
  0
LINE
  8
0
 62
0
 10
132.8
 20
155.067949192
 30
0.0
 11
135.8
 21
160.264101615
 31
0.0
  0
LINE
  8
0
 62
0
 10
138.8
 20
155.067949192
 30
0.0
 11
132.8
 21
155.067949192
 31
0.0
  0
LINE
  8
0
 62
0
 10
181.3
 20
130.532050808
 30
0.0
 11
187.3
 21
130.532050808
 31
0.0
  0
LINE
  8
0
 62
0
 10
184.3
 20
125.335898385
 30
0.0
 11
181.3
 21
130.532050808
 31
0.0
  0
LINE
  8
0
 62
0
 10
187.3
 20
130.532050808
 30
0.0
 11
184.3
 21
125.335898385
 31
0.0
  0
LINE
  8
0
 62
0
 10
187.3
 20
138.267949192
 30
0.0
 11
181.3
 21
138.267949192
 31
0.0
  0
LINE
  8
0
 62
0
 10
184.3
 20
143.464101615
 30
0.0
 11
187.3
 21
138.267949192
 31
0.0
  0
LINE
  8
0
 62
0
 10
181.3
 20
138.267949192
 30
0.0
 11
184.3
 21
143.464101615
 31
0.0
  0
LINE
  8
0
 62
0
 10
152.7
 20
138.730127019
 30
0.0
 11
157.7
 21
138.730127019
 31
0.0
  0
LINE
  8
0
 62
0
 10
150.2
 20
134.4
 30
0.0
 11
152.7
 21
138.730127019
 31
0.0
  0
LINE
  8
0
 62
0
 10
152.7
 20
130.069872981
 30
0.0
 11
150.2
 21
134.4
 31
0.0
  0
LINE
  8
0
 62
0
 10
157.7
 20
130.069872981
 30
0.0
 11
152.7
 21
130.069872981
 31
0.0
  0
LINE
  8
0
 62
0
 10
160.2
 20
134.4
 30
0.0
 11
157.7
 21
130.069872981
 31
0.0
  0
LINE
  8
0
 62
0
 10
157.7
 20
138.730127019
 30
0.0
 11
160.2
 21
134.4
 31
0.0
  0
LINE
  8
0
 62
0
 10
133.3
 20
138.730127019
 30
0.0
 11
138.3
 21
138.730127019
 31
0.0
  0
LINE
  8
0
 62
0
 10
130.8
 20
134.4
 30
0.0
 11
133.3
 21
138.730127019
 31
0.0
  0
LINE
  8
0
 62
0
 10
133.3
 20
130.069872981
 30
0.0
 11
130.8
 21
134.4
 31
0.0
  0
LINE
  8
0
 62
0
 10
138.3
 20
130.069872981
 30
0.0
 11
133.3
 21
130.069872981
 31
0.0
  0
LINE
  8
0
 62
0
 10
140.8
 20
134.4
 30
0.0
 11
138.3
 21
130.069872981
 31
0.0
  0
LINE
  8
0
 62
0
 10
138.3
 20
138.730127019
 30
0.0
 11
140.8
 21
134.4
 31
0.0
  0
LINE
  8
0
 62
0
 10
106.7
 20
143.464101615
 30
0.0
 11
109.7
 21
138.267949192
 31
0.0
  0
LINE
  8
0
 62
0
 10
103.7
 20
138.267949192
 30
0.0
 11
106.7
 21
143.464101615
 31
0.0
  0
LINE
  8
0
 62
0
 10
109.7
 20
138.267949192
 30
0.0
 11
103.7
 21
138.267949192
 31
0.0
  0
LINE
  8
0
 62
0
 10
118.9
 20
130.069872981
 30
0.0
 11
113.9
 21
130.069872981
 31
0.0
  0
LINE
  8
0
 62
0
 10
121.4
 20
134.4
 30
0.0
 11
118.9
 21
130.069872981
 31
0.0
  0
LINE
  8
0
 62
0
 10
118.9
 20
138.730127019
 30
0.0
 11
121.4
 21
134.4
 31
0.0
  0
LINE
  8
0
 62
0
 10
113.9
 20
138.730127019
 30
0.0
 11
118.9
 21
138.730127019
 31
0.0
  0
LINE
  8
0
 62
0
 10
111.4
 20
134.4
 30
0.0
 11
113.9
 21
138.730127019
 31
0.0
  0
LINE
  8
0
 62
0
 10
113.9
 20
130.069872981
 30
0.0
 11
111.4
 21
134.4
 31
0.0
  0
LINE
  8
0
 62
0
 10
129.1
 20
138.267949192
 30
0.0
 11
123.1
 21
138.267949192
 31
0.0
  0
LINE
  8
0
 62
0
 10
126.1
 20
143.464101615
 30
0.0
 11
129.1
 21
138.267949192
 31
0.0
  0
LINE
  8
0
 62
0
 10
123.1
 20
138.267949192
 30
0.0
 11
126.1
 21
143.464101615
 31
0.0
  0
LINE
  8
0
 62
0
 10
19.4
 20
193.864101615
 30
0.0
 11
22.4
 21
188.667949192
 31
0.0
  0
LINE
  8
0
 62
0
 10
16.4
 20
188.667949192
 30
0.0
 11
19.4
 21
193.864101615
 31
0.0
  0
LINE
  8
0
 62
0
 10
22.4
 20
188.667949192
 30
0.0
 11
16.4
 21
188.667949192
 31
0.0
  0
LINE
  8
0
 62
0
 10
74.6
 20
188.667949192
 30
0.0
 11
77.6
 21
193.864101615
 31
0.0
  0
LINE
  8
0
 62
0
 10
80.6
 20
188.667949192
 30
0.0
 11
74.6
 21
188.667949192
 31
0.0
  0
LINE
  8
0
 62
0
 10
77.6
 20
193.864101615
 30
0.0
 11
80.6
 21
188.667949192
 31
0.0
  0
LINE
  8
0
 62
0
 10
67.9
 20
192.535898385
 30
0.0
 11
64.9
 21
197.732050808
 31
0.0
  0
LINE
  8
0
 62
0
 10
70.9
 20
197.732050808
 30
0.0
 11
67.9
 21
192.535898385
 31
0.0
  0
LINE
  8
0
 62
0
 10
64.9
 20
197.732050808
 30
0.0
 11
70.9
 21
197.732050808
 31
0.0
  0
LINE
  8
0
 62
0
 10
19.4
 20
175.735898385
 30
0.0
 11
16.4
 21
180.932050808
 31
0.0
  0
LINE
  8
0
 62
0
 10
22.4
 20
180.932050808
 30
0.0
 11
19.4
 21
175.735898385
 31
0.0
  0
LINE
  8
0
 62
0
 10
16.4
 20
180.932050808
 30
0.0
 11
22.4
 21
180.932050808
 31
0.0
  0
LINE
  8
0
 62
0
 10
38.8
 20
175.735898385
 30
0.0
 11
35.8
 21
180.932050808
 31
0.0
  0
LINE
  8
0
 62
0
 10
41.8
 20
180.932050808
 30
0.0
 11
38.8
 21
175.735898385
 31
0.0
  0
LINE
  8
0
 62
0
 10
35.8
 20
180.932050808
 30
0.0
 11
41.8
 21
180.932050808
 31
0.0
  0
LINE
  8
0
 62
0
 10
14.4
 20
168.0
 30
0.0
 11
16.9
 21
172.330127019
 31
0.0
  0
LINE
  8
0
 62
0
 10
16.9
 20
163.669872981
 30
0.0
 11
14.4
 21
168.0
 31
0.0
  0
LINE
  8
0
 62
0
 10
21.9
 20
163.669872981
 30
0.0
 11
16.9
 21
163.669872981
 31
0.0
  0
LINE
  8
0
 62
0
 10
24.4
 20
168.0
 30
0.0
 11
21.9
 21
163.669872981
 31
0.0
  0
LINE
  8
0
 62
0
 10
21.9
 20
172.330127019
 30
0.0
 11
24.4
 21
168.0
 31
0.0
  0
LINE
  8
0
 62
0
 10
16.9
 20
172.330127019
 30
0.0
 11
21.9
 21
172.330127019
 31
0.0
  0
LINE
  8
0
 62
0
 10
36.3
 20
163.669872981
 30
0.0
 11
33.8
 21
168.0
 31
0.0
  0
LINE
  8
0
 62
0
 10
41.3
 20
163.669872981
 30
0.0
 11
36.3
 21
163.669872981
 31
0.0
  0
LINE
  8
0
 62
0
 10
43.8
 20
168.0
 30
0.0
 11
41.3
 21
163.669872981
 31
0.0
  0
LINE
  8
0
 62
0
 10
41.3
 20
172.330127019
 30
0.0
 11
43.8
 21
168.0
 31
0.0
  0
LINE
  8
0
 62
0
 10
36.3
 20
172.330127019
 30
0.0
 11
41.3
 21
172.330127019
 31
0.0
  0
LINE
  8
0
 62
0
 10
33.8
 20
168.0
 30
0.0
 11
36.3
 21
172.330127019
 31
0.0
  0
LINE
  8
0
 62
0
 10
70.9
 20
171.867949192
 30
0.0
 11
64.9
 21
171.867949192
 31
0.0
  0
LINE
  8
0
 62
0
 10
67.9
 20
177.064101615
 30
0.0
 11
70.9
 21
171.867949192
 31
0.0
  0
LINE
  8
0
 62
0
 10
64.9
 20
171.867949192
 30
0.0
 11
67.9
 21
177.064101615
 31
0.0
  0
LINE
  8
0
 62
0
 10
70.9
 20
164.132050808
 30
0.0
 11
67.9
 21
158.935898385
 31
0.0
  0
LINE
  8
0
 62
0
 10
64.9
 20
164.132050808
 30
0.0
 11
70.9
 21
164.132050808
 31
0.0
  0
LINE
  8
0
 62
0
 10
67.9
 20
158.935898385
 30
0.0
 11
64.9
 21
164.132050808
 31
0.0
  0
LINE
  8
0
 62
0
 10
84.3
 20
171.867949192
 30
0.0
 11
87.3
 21
177.064101615
 31
0.0
  0
LINE
  8
0
 62
0
 10
90.3
 20
171.867949192
 30
0.0
 11
84.3
 21
171.867949192
 31
0.0
  0
LINE
  8
0
 62
0
 10
87.3
 20
177.064101615
 30
0.0
 11
90.3
 21
171.867949192
 31
0.0
  0
LINE
  8
0
 62
0
 10
90.3
 20
164.132050808
 30
0.0
 11
87.3
 21
158.935898385
 31
0.0
  0
LINE
  8
0
 62
0
 10
84.3
 20
164.132050808
 30
0.0
 11
90.3
 21
164.132050808
 31
0.0
  0
LINE
  8
0
 62
0
 10
87.3
 20
158.935898385
 30
0.0
 11
84.3
 21
164.132050808
 31
0.0
  0
LINE
  8
0
 62
0
 10
61.2
 20
155.067949192
 30
0.0
 11
55.2
 21
155.067949192
 31
0.0
  0
LINE
  8
0
 62
0
 10
58.2
 20
160.264101615
 30
0.0
 11
61.2
 21
155.067949192
 31
0.0
  0
LINE
  8
0
 62
0
 10
55.2
 20
155.067949192
 30
0.0
 11
58.2
 21
160.264101615
 31
0.0
  0
LINE
  8
0
 62
0
 10
51.5
 20
164.132050808
 30
0.0
 11
48.5
 21
158.935898385
 31
0.0
  0
LINE
  8
0
 62
0
 10
45.5
 20
164.132050808
 30
0.0
 11
51.5
 21
164.132050808
 31
0.0
  0
LINE
  8
0
 62
0
 10
48.5
 20
158.935898385
 30
0.0
 11
45.5
 21
164.132050808
 31
0.0
  0
LINE
  8
0
 62
0
 10
41.8
 20
155.067949192
 30
0.0
 11
35.8
 21
155.067949192
 31
0.0
  0
LINE
  8
0
 62
0
 10
38.8
 20
160.264101615
 30
0.0
 11
41.8
 21
155.067949192
 31
0.0
  0
LINE
  8
0
 62
0
 10
35.8
 20
155.067949192
 30
0.0
 11
38.8
 21
160.264101615
 31
0.0
  0
LINE
  8
0
 62
0
 10
35.8
 20
147.332050808
 30
0.0
 11
41.8
 21
147.332050808
 31
0.0
  0
LINE
  8
0
 62
0
 10
38.8
 20
142.135898385
 30
0.0
 11
35.8
 21
147.332050808
 31
0.0
  0
LINE
  8
0
 62
0
 10
41.8
 20
147.332050808
 30
0.0
 11
38.8
 21
142.135898385
 31
0.0
  0
LINE
  8
0
 62
0
 10
26.1
 20
138.267949192
 30
0.0
 11
29.1
 21
143.464101615
 31
0.0
  0
LINE
  8
0
 62
0
 10
32.1
 20
138.267949192
 30
0.0
 11
26.1
 21
138.267949192
 31
0.0
  0
LINE
  8
0
 62
0
 10
29.1
 20
143.464101615
 30
0.0
 11
32.1
 21
138.267949192
 31
0.0
  0
LINE
  8
0
 62
0
 10
51.5
 20
138.267949192
 30
0.0
 11
45.5
 21
138.267949192
 31
0.0
  0
LINE
  8
0
 62
0
 10
48.5
 20
143.464101615
 30
0.0
 11
51.5
 21
138.267949192
 31
0.0
  0
LINE
  8
0
 62
0
 10
45.5
 20
138.267949192
 30
0.0
 11
48.5
 21
143.464101615
 31
0.0
  0
LINE
  8
0
 62
0
 10
177.6
 20
188.667949192
 30
0.0
 11
171.6
 21
188.667949192
 31
0.0
  0
LINE
  8
0
 62
0
 10
174.6
 20
193.864101615
 30
0.0
 11
177.6
 21
188.667949192
 31
0.0
  0
LINE
  8
0
 62
0
 10
171.6
 20
188.667949192
 30
0.0
 11
174.6
 21
193.864101615
 31
0.0
  0
LINE
  8
0
 62
0
 10
161.9
 20
197.732050808
 30
0.0
 11
167.9
 21
197.732050808
 31
0.0
  0
LINE
  8
0
 62
0
 10
164.9
 20
192.535898385
 30
0.0
 11
161.9
 21
197.732050808
 31
0.0
  0
LINE
  8
0
 62
0
 10
167.9
 20
197.732050808
 30
0.0
 11
164.9
 21
192.535898385
 31
0.0
  0
LINE
  8
0
 62
0
 10
167.4
 20
189.130127019
 30
0.0
 11
169.9
 21
184.8
 31
0.0
  0
LINE
  8
0
 62
0
 10
162.4
 20
189.130127019
 30
0.0
 11
167.4
 21
189.130127019
 31
0.0
  0
LINE
  8
0
 62
0
 10
159.9
 20
184.8
 30
0.0
 11
162.4
 21
189.130127019
 31
0.0
  0
LINE
  8
0
 62
0
 10
162.4
 20
180.469872981
 30
0.0
 11
159.9
 21
184.8
 31
0.0
  0
LINE
  8
0
 62
0
 10
167.4
 20
180.469872981
 30
0.0
 11
162.4
 21
180.469872981
 31
0.0
  0
LINE
  8
0
 62
0
 10
169.9
 20
184.8
 30
0.0
 11
167.4
 21
180.469872981
 31
0.0
  0
LINE
  8
0
 62
0
 10
174.6
 20
175.735898385
 30
0.0
 11
171.6
 21
180.932050808
 31
0.0
  0
LINE
  8
0
 62
0
 10
177.6
 20
180.932050808
 30
0.0
 11
174.6
 21
175.735898385
 31
0.0
  0
LINE
  8
0
 62
0
 10
171.6
 20
180.932050808
 30
0.0
 11
177.6
 21
180.932050808
 31
0.0
  0
LINE
  8
0
 62
0
 10
161.9
 20
171.867949192
 30
0.0
 11
164.9
 21
177.064101615
 31
0.0
  0
LINE
  8
0
 62
0
 10
167.9
 20
171.867949192
 30
0.0
 11
161.9
 21
171.867949192
 31
0.0
  0
LINE
  8
0
 62
0
 10
164.9
 20
177.064101615
 30
0.0
 11
167.9
 21
171.867949192
 31
0.0
  0
LINE
  8
0
 62
0
 10
140.5
 20
184.8
 30
0.0
 11
143.0
 21
189.130127019
 31
0.0
  0
LINE
  8
0
 62
0
 10
143.0
 20
180.469872981
 30
0.0
 11
140.5
 21
184.8
 31
0.0
  0
LINE
  8
0
 62
0
 10
148.0
 20
180.469872981
 30
0.0
 11
143.0
 21
180.469872981
 31
0.0
  0
LINE
  8
0
 62
0
 10
150.5
 20
184.8
 30
0.0
 11
148.0
 21
180.469872981
 31
0.0
  0
LINE
  8
0
 62
0
 10
148.0
 20
189.130127019
 30
0.0
 11
150.5
 21
184.8
 31
0.0
  0
LINE
  8
0
 62
0
 10
143.0
 20
189.130127019
 30
0.0
 11
148.0
 21
189.130127019
 31
0.0
  0
LINE
  8
0
 62
0
 10
164.9
 20
158.935898385
 30
0.0
 11
161.9
 21
164.132050808
 31
0.0
  0
LINE
  8
0
 62
0
 10
167.9
 20
164.132050808
 30
0.0
 11
164.9
 21
158.935898385
 31
0.0
  0
LINE
  8
0
 62
0
 10
161.9
 20
164.132050808
 30
0.0
 11
167.9
 21
164.132050808
 31
0.0
  0
LINE
  8
0
 62
0
 10
171.6
 20
155.067949192
 30
0.0
 11
174.6
 21
160.264101615
 31
0.0
  0
LINE
  8
0
 62
0
 10
177.6
 20
155.067949192
 30
0.0
 11
171.6
 21
155.067949192
 31
0.0
  0
LINE
  8
0
 62
0
 10
174.6
 20
160.264101615
 30
0.0
 11
177.6
 21
155.067949192
 31
0.0
  0
LINE
  8
0
 62
0
 10
158.2
 20
155.067949192
 30
0.0
 11
152.2
 21
155.067949192
 31
0.0
  0
LINE
  8
0
 62
0
 10
155.2
 20
160.264101615
 30
0.0
 11
158.2
 21
155.067949192
 31
0.0
  0
LINE
  8
0
 62
0
 10
152.2
 20
155.067949192
 30
0.0
 11
155.2
 21
160.264101615
 31
0.0
  0
LINE
  8
0
 62
0
 10
109.2
 20
180.469872981
 30
0.0
 11
104.2
 21
180.469872981
 31
0.0
  0
LINE
  8
0
 62
0
 10
111.7
 20
184.8
 30
0.0
 11
109.2
 21
180.469872981
 31
0.0
  0
LINE
  8
0
 62
0
 10
109.2
 20
189.130127019
 30
0.0
 11
111.7
 21
184.8
 31
0.0
  0
LINE
  8
0
 62
0
 10
104.2
 20
189.130127019
 30
0.0
 11
109.2
 21
189.130127019
 31
0.0
  0
LINE
  8
0
 62
0
 10
101.7
 20
184.8
 30
0.0
 11
104.2
 21
189.130127019
 31
0.0
  0
LINE
  8
0
 62
0
 10
104.2
 20
180.469872981
 30
0.0
 11
101.7
 21
184.8
 31
0.0
  0
LINE
  8
0
 62
0
 10
135.8
 20
175.735898385
 30
0.0
 11
132.8
 21
180.932050808
 31
0.0
  0
LINE
  8
0
 62
0
 10
138.8
 20
180.932050808
 30
0.0
 11
135.8
 21
175.735898385
 31
0.0
  0
LINE
  8
0
 62
0
 10
132.8
 20
180.932050808
 30
0.0
 11
138.8
 21
180.932050808
 31
0.0
  0
LINE
  8
0
 62
0
 10
102.0
 20
168.0
 30
0.0
 11
99.5
 21
163.669872981
 31
0.0
  0
LINE
  8
0
 62
0
 10
99.5
 20
172.330127019
 30
0.0
 11
102.0
 21
168.0
 31
0.0
  0
LINE
  8
0
 62
0
 10
94.5
 20
172.330127019
 30
0.0
 11
99.5
 21
172.330127019
 31
0.0
  0
LINE
  8
0
 62
0
 10
92.0
 20
168.0
 30
0.0
 11
94.5
 21
172.330127019
 31
0.0
  0
LINE
  8
0
 62
0
 10
94.5
 20
163.669872981
 30
0.0
 11
92.0
 21
168.0
 31
0.0
  0
LINE
  8
0
 62
0
 10
99.5
 20
163.669872981
 30
0.0
 11
94.5
 21
163.669872981
 31
0.0
  0
LINE
  8
0
 62
0
 10
109.7
 20
164.132050808
 30
0.0
 11
106.7
 21
158.935898385
 31
0.0
  0
LINE
  8
0
 62
0
 10
103.7
 20
164.132050808
 30
0.0
 11
109.7
 21
164.132050808
 31
0.0
  0
LINE
  8
0
 62
0
 10
106.7
 20
158.935898385
 30
0.0
 11
103.7
 21
164.132050808
 31
0.0
  0
LINE
  8
0
 62
0
 10
123.6
 20
146.869872981
 30
0.0
 11
121.1
 21
151.2
 31
0.0
  0
LINE
  8
0
 62
0
 10
128.6
 20
146.869872981
 30
0.0
 11
123.6
 21
146.869872981
 31
0.0
  0
LINE
  8
0
 62
0
 10
131.1
 20
151.2
 30
0.0
 11
128.6
 21
146.869872981
 31
0.0
  0
LINE
  8
0
 62
0
 10
128.6
 20
155.530127019
 30
0.0
 11
131.1
 21
151.2
 31
0.0
  0
LINE
  8
0
 62
0
 10
123.6
 20
155.530127019
 30
0.0
 11
128.6
 21
155.530127019
 31
0.0
  0
LINE
  8
0
 62
0
 10
121.1
 20
151.2
 30
0.0
 11
123.6
 21
155.530127019
 31
0.0
  0
LINE
  8
0
 62
0
 10
132.8
 20
147.332050808
 30
0.0
 11
138.8
 21
147.332050808
 31
0.0
  0
LINE
  8
0
 62
0
 10
135.8
 20
142.135898385
 30
0.0
 11
132.8
 21
147.332050808
 31
0.0
  0
LINE
  8
0
 62
0
 10
138.8
 20
147.332050808
 30
0.0
 11
135.8
 21
142.135898385
 31
0.0
  0
LINE
  8
0
 62
0
 10
97.0
 20
193.864101615
 30
0.0
 11
100.0
 21
188.667949192
 31
0.0
  0
LINE
  8
0
 62
0
 10
94.0
 20
188.667949192
 30
0.0
 11
97.0
 21
193.864101615
 31
0.0
  0
LINE
  8
0
 62
0
 10
100.0
 20
188.667949192
 30
0.0
 11
94.0
 21
188.667949192
 31
0.0
  0
LINE
  8
0
 62
0
 10
177.1
 20
163.669872981
 30
0.0
 11
172.1
 21
163.669872981
 31
0.0
  0
LINE
  8
0
 62
0
 10
179.6
 20
168.0
 30
0.0
 11
177.1
 21
163.669872981
 31
0.0
  0
LINE
  8
0
 62
0
 10
177.1
 20
172.330127019
 30
0.0
 11
179.6
 21
168.0
 31
0.0
  0
LINE
  8
0
 62
0
 10
172.1
 20
172.330127019
 30
0.0
 11
177.1
 21
172.330127019
 31
0.0
  0
LINE
  8
0
 62
0
 10
169.6
 20
168.0
 30
0.0
 11
172.1
 21
172.330127019
 31
0.0
  0
LINE
  8
0
 62
0
 10
172.1
 20
163.669872981
 30
0.0
 11
169.6
 21
168.0
 31
0.0
  0
LINE
  8
0
 62
0
 10
184.3
 20
192.535898385
 30
0.0
 11
181.3
 21
197.732050808
 31
0.0
  0
LINE
  8
0
 62
0
 10
187.3
 20
197.732050808
 30
0.0
 11
184.3
 21
192.535898385
 31
0.0
  0
LINE
  8
0
 62
0
 10
181.3
 20
197.732050808
 30
0.0
 11
187.3
 21
197.732050808
 31
0.0
  0
LINE
  8
0
 62
0
 10
184.3
 20
177.064101615
 30
0.0
 11
187.3
 21
171.867949192
 31
0.0
  0
LINE
  8
0
 62
0
 10
181.3
 20
171.867949192
 30
0.0
 11
184.3
 21
177.064101615
 31
0.0
  0
LINE
  8
0
 62
0
 10
187.3
 20
171.867949192
 30
0.0
 11
181.3
 21
171.867949192
 31
0.0
  0
LINE
  8
0
 62
0
 10
12.7
 20
205.467949192
 30
0.0
 11
6.7
 21
205.467949192
 31
0.0
  0
LINE
  8
0
 62
0
 10
9.7
 20
210.664101615
 30
0.0
 11
12.7
 21
205.467949192
 31
0.0
  0
LINE
  8
0
 62
0
 10
6.7
 20
205.467949192
 30
0.0
 11
9.7
 21
210.664101615
 31
0.0
  0
LINE
  8
0
 62
0
 10
19.4
 20
209.335898385
 30
0.0
 11
16.4
 21
214.532050808
 31
0.0
  0
LINE
  8
0
 62
0
 10
22.4
 20
214.532050808
 30
0.0
 11
19.4
 21
209.335898385
 31
0.0
  0
LINE
  8
0
 62
0
 10
16.4
 20
214.532050808
 30
0.0
 11
22.4
 21
214.532050808
 31
0.0
  0
LINE
  8
0
 62
0
 10
12.7
 20
197.732050808
 30
0.0
 11
9.7
 21
192.535898385
 31
0.0
  0
LINE
  8
0
 62
0
 10
6.7
 20
197.732050808
 30
0.0
 11
12.7
 21
197.732050808
 31
0.0
  0
LINE
  8
0
 62
0
 10
9.7
 20
192.535898385
 30
0.0
 11
6.7
 21
197.732050808
 31
0.0
  0
LINE
  8
0
 62
0
 10
12.2
 20
189.130127019
 30
0.0
 11
14.7
 21
184.8
 31
0.0
  0
LINE
  8
0
 62
0
 10
7.2
 20
189.130127019
 30
0.0
 11
12.2
 21
189.130127019
 31
0.0
  0
LINE
  8
0
 62
0
 10
4.7
 20
184.8
 30
0.0
 11
7.2
 21
189.130127019
 31
0.0
  0
LINE
  8
0
 62
0
 10
7.2
 20
180.469872981
 30
0.0
 11
4.7
 21
184.8
 31
0.0
  0
LINE
  8
0
 62
0
 10
12.2
 20
180.469872981
 30
0.0
 11
7.2
 21
180.469872981
 31
0.0
  0
LINE
  8
0
 62
0
 10
14.7
 20
184.8
 30
0.0
 11
12.2
 21
180.469872981
 31
0.0
  0
LINE
  8
0
 62
0
 10
38.8
 20
193.864101615
 30
0.0
 11
41.8
 21
188.667949192
 31
0.0
  0
LINE
  8
0
 62
0
 10
35.8
 20
188.667949192
 30
0.0
 11
38.8
 21
193.864101615
 31
0.0
  0
LINE
  8
0
 62
0
 10
41.8
 20
188.667949192
 30
0.0
 11
35.8
 21
188.667949192
 31
0.0
  0
LINE
  8
0
 62
0
 10
26.1
 20
197.732050808
 30
0.0
 11
32.1
 21
197.732050808
 31
0.0
  0
LINE
  8
0
 62
0
 10
29.1
 20
192.535898385
 30
0.0
 11
26.1
 21
197.732050808
 31
0.0
  0
LINE
  8
0
 62
0
 10
32.1
 20
197.732050808
 30
0.0
 11
29.1
 21
192.535898385
 31
0.0
  0
LINE
  8
0
 62
0
 10
26.6
 20
189.130127019
 30
0.0
 11
31.6
 21
189.130127019
 31
0.0
  0
LINE
  8
0
 62
0
 10
24.1
 20
184.8
 30
0.0
 11
26.6
 21
189.130127019
 31
0.0
  0
LINE
  8
0
 62
0
 10
26.6
 20
180.469872981
 30
0.0
 11
24.1
 21
184.8
 31
0.0
  0
LINE
  8
0
 62
0
 10
31.6
 20
180.469872981
 30
0.0
 11
26.6
 21
180.469872981
 31
0.0
  0
LINE
  8
0
 62
0
 10
34.1
 20
184.8
 30
0.0
 11
31.6
 21
180.469872981
 31
0.0
  0
LINE
  8
0
 62
0
 10
31.6
 20
189.130127019
 30
0.0
 11
34.1
 21
184.8
 31
0.0
  0
LINE
  8
0
 62
0
 10
29.1
 20
177.064101615
 30
0.0
 11
32.1
 21
171.867949192
 31
0.0
  0
LINE
  8
0
 62
0
 10
26.1
 20
171.867949192
 30
0.0
 11
29.1
 21
177.064101615
 31
0.0
  0
LINE
  8
0
 62
0
 10
32.1
 20
171.867949192
 30
0.0
 11
26.1
 21
171.867949192
 31
0.0
  0
LINE
  8
0
 62
0
 10
77.6
 20
209.335898385
 30
0.0
 11
74.6
 21
214.532050808
 31
0.0
  0
LINE
  8
0
 62
0
 10
80.6
 20
214.532050808
 30
0.0
 11
77.6
 21
209.335898385
 31
0.0
  0
LINE
  8
0
 62
0
 10
74.6
 20
214.532050808
 30
0.0
 11
80.6
 21
214.532050808
 31
0.0
  0
LINE
  8
0
 62
0
 10
80.1
 20
205.930127019
 30
0.0
 11
82.6
 21
201.6
 31
0.0
  0
LINE
  8
0
 62
0
 10
75.1
 20
205.930127019
 30
0.0
 11
80.1
 21
205.930127019
 31
0.0
  0
LINE
  8
0
 62
0
 10
72.6
 20
201.6
 30
0.0
 11
75.1
 21
205.930127019
 31
0.0
  0
LINE
  8
0
 62
0
 10
75.1
 20
197.269872981
 30
0.0
 11
72.6
 21
201.6
 31
0.0
  0
LINE
  8
0
 62
0
 10
80.1
 20
197.269872981
 30
0.0
 11
75.1
 21
197.269872981
 31
0.0
  0
LINE
  8
0
 62
0
 10
82.6
 20
201.6
 30
0.0
 11
80.1
 21
197.269872981
 31
0.0
  0
LINE
  8
0
 62
0
 10
45.5
 20
205.467949192
 30
0.0
 11
48.5
 21
210.664101615
 31
0.0
  0
LINE
  8
0
 62
0
 10
51.5
 20
205.467949192
 30
0.0
 11
45.5
 21
205.467949192
 31
0.0
  0
LINE
  8
0
 62
0
 10
48.5
 20
210.664101615
 30
0.0
 11
51.5
 21
205.467949192
 31
0.0
  0
LINE
  8
0
 62
0
 10
45.5
 20
197.732050808
 30
0.0
 11
51.5
 21
197.732050808
 31
0.0
  0
LINE
  8
0
 62
0
 10
48.5
 20
192.535898385
 30
0.0
 11
45.5
 21
197.732050808
 31
0.0
  0
LINE
  8
0
 62
0
 10
51.5
 20
197.732050808
 30
0.0
 11
48.5
 21
192.535898385
 31
0.0
  0
LINE
  8
0
 62
0
 10
55.7
 20
197.269872981
 30
0.0
 11
53.2
 21
201.6
 31
0.0
  0
LINE
  8
0
 62
0
 10
60.7
 20
197.269872981
 30
0.0
 11
55.7
 21
197.269872981
 31
0.0
  0
LINE
  8
0
 62
0
 10
63.2
 20
201.6
 30
0.0
 11
60.7
 21
197.269872981
 31
0.0
  0
LINE
  8
0
 62
0
 10
60.7
 20
205.930127019
 30
0.0
 11
63.2
 21
201.6
 31
0.0
  0
LINE
  8
0
 62
0
 10
55.7
 20
205.930127019
 30
0.0
 11
60.7
 21
205.930127019
 31
0.0
  0
LINE
  8
0
 62
0
 10
53.2
 20
201.6
 30
0.0
 11
55.7
 21
205.930127019
 31
0.0
  0
LINE
  8
0
 62
0
 10
61.2
 20
214.532050808
 30
0.0
 11
58.2
 21
209.335898385
 31
0.0
  0
LINE
  8
0
 62
0
 10
55.2
 20
214.532050808
 30
0.0
 11
61.2
 21
214.532050808
 31
0.0
  0
LINE
  8
0
 62
0
 10
58.2
 20
209.335898385
 30
0.0
 11
55.2
 21
214.532050808
 31
0.0
  0
LINE
  8
0
 62
0
 10
43.5
 20
218.4
 30
0.0
 11
46.0
 21
222.730127019
 31
0.0
  0
LINE
  8
0
 62
0
 10
46.0
 20
214.069872981
 30
0.0
 11
43.5
 21
218.4
 31
0.0
  0
LINE
  8
0
 62
0
 10
51.0
 20
214.069872981
 30
0.0
 11
46.0
 21
214.069872981
 31
0.0
  0
LINE
  8
0
 62
0
 10
53.5
 20
218.4
 30
0.0
 11
51.0
 21
214.069872981
 31
0.0
  0
LINE
  8
0
 62
0
 10
51.0
 20
222.730127019
 30
0.0
 11
53.5
 21
218.4
 31
0.0
  0
LINE
  8
0
 62
0
 10
46.0
 20
222.730127019
 30
0.0
 11
51.0
 21
222.730127019
 31
0.0
  0
LINE
  8
0
 62
0
 10
65.4
 20
180.469872981
 30
0.0
 11
62.9
 21
184.8
 31
0.0
  0
LINE
  8
0
 62
0
 10
70.4
 20
180.469872981
 30
0.0
 11
65.4
 21
180.469872981
 31
0.0
  0
LINE
  8
0
 62
0
 10
72.9
 20
184.8
 30
0.0
 11
70.4
 21
180.469872981
 31
0.0
  0
LINE
  8
0
 62
0
 10
70.4
 20
189.130127019
 30
0.0
 11
72.9
 21
184.8
 31
0.0
  0
LINE
  8
0
 62
0
 10
65.4
 20
189.130127019
 30
0.0
 11
70.4
 21
189.130127019
 31
0.0
  0
LINE
  8
0
 62
0
 10
62.9
 20
184.8
 30
0.0
 11
65.4
 21
189.130127019
 31
0.0
  0
LINE
  8
0
 62
0
 10
55.2
 20
188.667949192
 30
0.0
 11
58.2
 21
193.864101615
 31
0.0
  0
LINE
  8
0
 62
0
 10
61.2
 20
188.667949192
 30
0.0
 11
55.2
 21
188.667949192
 31
0.0
  0
LINE
  8
0
 62
0
 10
58.2
 20
193.864101615
 30
0.0
 11
61.2
 21
188.667949192
 31
0.0
  0
LINE
  8
0
 62
0
 10
61.2
 20
180.932050808
 30
0.0
 11
58.2
 21
175.735898385
 31
0.0
  0
LINE
  8
0
 62
0
 10
55.2
 20
180.932050808
 30
0.0
 11
61.2
 21
180.932050808
 31
0.0
  0
LINE
  8
0
 62
0
 10
58.2
 20
175.735898385
 30
0.0
 11
55.2
 21
180.932050808
 31
0.0
  0
LINE
  8
0
 62
0
 10
46.0
 20
189.130127019
 30
0.0
 11
51.0
 21
189.130127019
 31
0.0
  0
LINE
  8
0
 62
0
 10
43.5
 20
184.8
 30
0.0
 11
46.0
 21
189.130127019
 31
0.0
  0
LINE
  8
0
 62
0
 10
46.0
 20
180.469872981
 30
0.0
 11
43.5
 21
184.8
 31
0.0
  0
LINE
  8
0
 62
0
 10
51.0
 20
180.469872981
 30
0.0
 11
46.0
 21
180.469872981
 31
0.0
  0
LINE
  8
0
 62
0
 10
53.5
 20
184.8
 30
0.0
 11
51.0
 21
180.469872981
 31
0.0
  0
LINE
  8
0
 62
0
 10
51.0
 20
189.130127019
 30
0.0
 11
53.5
 21
184.8
 31
0.0
  0
LINE
  8
0
 62
0
 10
74.6
 20
180.932050808
 30
0.0
 11
80.6
 21
180.932050808
 31
0.0
  0
LINE
  8
0
 62
0
 10
77.6
 20
175.735898385
 30
0.0
 11
74.6
 21
180.932050808
 31
0.0
  0
LINE
  8
0
 62
0
 10
80.6
 20
180.932050808
 30
0.0
 11
77.6
 21
175.735898385
 31
0.0
  0
LINE
  8
0
 62
0
 10
123.1
 20
205.467949192
 30
0.0
 11
126.1
 21
210.664101615
 31
0.0
  0
LINE
  8
0
 62
0
 10
129.1
 20
205.467949192
 30
0.0
 11
123.1
 21
205.467949192
 31
0.0
  0
LINE
  8
0
 62
0
 10
126.1
 20
210.664101615
 30
0.0
 11
129.1
 21
205.467949192
 31
0.0
  0
LINE
  8
0
 62
0
 10
116.4
 20
209.335898385
 30
0.0
 11
113.4
 21
214.532050808
 31
0.0
  0
LINE
  8
0
 62
0
 10
119.4
 20
214.532050808
 30
0.0
 11
116.4
 21
209.335898385
 31
0.0
  0
LINE
  8
0
 62
0
 10
113.4
 20
214.532050808
 30
0.0
 11
119.4
 21
214.532050808
 31
0.0
  0
LINE
  8
0
 62
0
 10
109.7
 20
205.467949192
 30
0.0
 11
103.7
 21
205.467949192
 31
0.0
  0
LINE
  8
0
 62
0
 10
106.7
 20
210.664101615
 30
0.0
 11
109.7
 21
205.467949192
 31
0.0
  0
LINE
  8
0
 62
0
 10
103.7
 20
205.467949192
 30
0.0
 11
106.7
 21
210.664101615
 31
0.0
  0
LINE
  8
0
 62
0
 10
92.0
 20
201.6
 30
0.0
 11
94.5
 21
205.930127019
 31
0.0
  0
LINE
  8
0
 62
0
 10
94.5
 20
197.269872981
 30
0.0
 11
92.0
 21
201.6
 31
0.0
  0
LINE
  8
0
 62
0
 10
99.5
 20
197.269872981
 30
0.0
 11
94.5
 21
197.269872981
 31
0.0
  0
LINE
  8
0
 62
0
 10
102.0
 20
201.6
 30
0.0
 11
99.5
 21
197.269872981
 31
0.0
  0
LINE
  8
0
 62
0
 10
99.5
 20
205.930127019
 30
0.0
 11
102.0
 21
201.6
 31
0.0
  0
LINE
  8
0
 62
0
 10
94.5
 20
205.930127019
 30
0.0
 11
99.5
 21
205.930127019
 31
0.0
  0
LINE
  8
0
 62
0
 10
106.7
 20
192.535898385
 30
0.0
 11
103.7
 21
197.732050808
 31
0.0
  0
LINE
  8
0
 62
0
 10
109.7
 20
197.732050808
 30
0.0
 11
106.7
 21
192.535898385
 31
0.0
  0
LINE
  8
0
 62
0
 10
103.7
 20
197.732050808
 30
0.0
 11
109.7
 21
197.732050808
 31
0.0
  0
LINE
  8
0
 62
0
 10
113.4
 20
180.932050808
 30
0.0
 11
119.4
 21
180.932050808
 31
0.0
  0
LINE
  8
0
 62
0
 10
116.4
 20
175.735898385
 30
0.0
 11
113.4
 21
180.932050808
 31
0.0
  0
LINE
  8
0
 62
0
 10
119.4
 20
180.932050808
 30
0.0
 11
116.4
 21
175.735898385
 31
0.0
  0
LINE
  8
0
 62
0
 10
119.4
 20
188.667949192
 30
0.0
 11
113.4
 21
188.667949192
 31
0.0
  0
LINE
  8
0
 62
0
 10
116.4
 20
193.864101615
 30
0.0
 11
119.4
 21
188.667949192
 31
0.0
  0
LINE
  8
0
 62
0
 10
113.4
 20
188.667949192
 30
0.0
 11
116.4
 21
193.864101615
 31
0.0
  0
LINE
  8
0
 62
0
 10
82.3
 20
184.8
 30
0.0
 11
84.8
 21
189.130127019
 31
0.0
  0
LINE
  8
0
 62
0
 10
84.8
 20
180.469872981
 30
0.0
 11
82.3
 21
184.8
 31
0.0
  0
LINE
  8
0
 62
0
 10
89.8
 20
180.469872981
 30
0.0
 11
84.8
 21
180.469872981
 31
0.0
  0
LINE
  8
0
 62
0
 10
92.3
 20
184.8
 30
0.0
 11
89.8
 21
180.469872981
 31
0.0
  0
LINE
  8
0
 62
0
 10
89.8
 20
189.130127019
 30
0.0
 11
92.3
 21
184.8
 31
0.0
  0
LINE
  8
0
 62
0
 10
84.8
 20
189.130127019
 30
0.0
 11
89.8
 21
189.130127019
 31
0.0
  0
LINE
  8
0
 62
0
 10
97.0
 20
175.735898385
 30
0.0
 11
94.0
 21
180.932050808
 31
0.0
  0
LINE
  8
0
 62
0
 10
100.0
 20
180.932050808
 30
0.0
 11
97.0
 21
175.735898385
 31
0.0
  0
LINE
  8
0
 62
0
 10
94.0
 20
180.932050808
 30
0.0
 11
100.0
 21
180.932050808
 31
0.0
  0
LINE
  8
0
 62
0
 10
90.3
 20
197.732050808
 30
0.0
 11
87.3
 21
192.535898385
 31
0.0
  0
LINE
  8
0
 62
0
 10
84.3
 20
197.732050808
 30
0.0
 11
90.3
 21
197.732050808
 31
0.0
  0
LINE
  8
0
 62
0
 10
87.3
 20
192.535898385
 30
0.0
 11
84.3
 21
197.732050808
 31
0.0
  0
LINE
  8
0
 62
0
 10
177.6
 20
214.532050808
 30
0.0
 11
174.6
 21
209.335898385
 31
0.0
  0
LINE
  8
0
 62
0
 10
171.6
 20
214.532050808
 30
0.0
 11
177.6
 21
214.532050808
 31
0.0
  0
LINE
  8
0
 62
0
 10
174.6
 20
209.335898385
 30
0.0
 11
171.6
 21
214.532050808
 31
0.0
  0
LINE
  8
0
 62
0
 10
161.9
 20
205.467949192
 30
0.0
 11
164.9
 21
210.664101615
 31
0.0
  0
LINE
  8
0
 62
0
 10
167.9
 20
205.467949192
 30
0.0
 11
161.9
 21
205.467949192
 31
0.0
  0
LINE
  8
0
 62
0
 10
164.9
 20
210.664101615
 30
0.0
 11
167.9
 21
205.467949192
 31
0.0
  0
LINE
  8
0
 62
0
 10
145.5
 20
192.535898385
 30
0.0
 11
142.5
 21
197.732050808
 31
0.0
  0
LINE
  8
0
 62
0
 10
148.5
 20
197.732050808
 30
0.0
 11
145.5
 21
192.535898385
 31
0.0
  0
LINE
  8
0
 62
0
 10
142.5
 20
197.732050808
 30
0.0
 11
148.5
 21
197.732050808
 31
0.0
  0
LINE
  8
0
 62
0
 10
152.7
 20
197.269872981
 30
0.0
 11
150.2
 21
201.6
 31
0.0
  0
LINE
  8
0
 62
0
 10
157.7
 20
197.269872981
 30
0.0
 11
152.7
 21
197.269872981
 31
0.0
  0
LINE
  8
0
 62
0
 10
160.2
 20
201.6
 30
0.0
 11
157.7
 21
197.269872981
 31
0.0
  0
LINE
  8
0
 62
0
 10
157.7
 20
205.930127019
 30
0.0
 11
160.2
 21
201.6
 31
0.0
  0
LINE
  8
0
 62
0
 10
152.7
 20
205.930127019
 30
0.0
 11
157.7
 21
205.930127019
 31
0.0
  0
LINE
  8
0
 62
0
 10
150.2
 20
201.6
 30
0.0
 11
152.7
 21
205.930127019
 31
0.0
  0
LINE
  8
0
 62
0
 10
138.8
 20
188.667949192
 30
0.0
 11
132.8
 21
188.667949192
 31
0.0
  0
LINE
  8
0
 62
0
 10
135.8
 20
193.864101615
 30
0.0
 11
138.8
 21
188.667949192
 31
0.0
  0
LINE
  8
0
 62
0
 10
132.8
 20
188.667949192
 30
0.0
 11
135.8
 21
193.864101615
 31
0.0
  0
LINE
  8
0
 62
0
 10
126.1
 20
192.535898385
 30
0.0
 11
123.1
 21
197.732050808
 31
0.0
  0
LINE
  8
0
 62
0
 10
129.1
 20
197.732050808
 30
0.0
 11
126.1
 21
192.535898385
 31
0.0
  0
LINE
  8
0
 62
0
 10
123.1
 20
197.732050808
 30
0.0
 11
129.1
 21
197.732050808
 31
0.0
  0
LINE
  8
0
 62
0
 10
123.6
 20
180.469872981
 30
0.0
 11
121.1
 21
184.8
 31
0.0
  0
LINE
  8
0
 62
0
 10
128.6
 20
180.469872981
 30
0.0
 11
123.6
 21
180.469872981
 31
0.0
  0
LINE
  8
0
 62
0
 10
131.1
 20
184.8
 30
0.0
 11
128.6
 21
180.469872981
 31
0.0
  0
LINE
  8
0
 62
0
 10
128.6
 20
189.130127019
 30
0.0
 11
131.1
 21
184.8
 31
0.0
  0
LINE
  8
0
 62
0
 10
123.6
 20
189.130127019
 30
0.0
 11
128.6
 21
189.130127019
 31
0.0
  0
LINE
  8
0
 62
0
 10
121.1
 20
184.8
 30
0.0
 11
123.6
 21
189.130127019
 31
0.0
  0
LINE
  8
0
 62
0
 10
130.8
 20
201.6
 30
0.0
 11
133.3
 21
205.930127019
 31
0.0
  0
LINE
  8
0
 62
0
 10
133.3
 20
197.269872981
 30
0.0
 11
130.8
 21
201.6
 31
0.0
  0
LINE
  8
0
 62
0
 10
138.3
 20
197.269872981
 30
0.0
 11
133.3
 21
197.269872981
 31
0.0
  0
LINE
  8
0
 62
0
 10
140.8
 20
201.6
 30
0.0
 11
138.3
 21
197.269872981
 31
0.0
  0
LINE
  8
0
 62
0
 10
138.3
 20
205.930127019
 30
0.0
 11
140.8
 21
201.6
 31
0.0
  0
LINE
  8
0
 62
0
 10
133.3
 20
205.930127019
 30
0.0
 11
138.3
 21
205.930127019
 31
0.0
  0
LINE
  8
0
 62
0
 10
158.2
 20
180.932050808
 30
0.0
 11
155.2
 21
175.735898385
 31
0.0
  0
LINE
  8
0
 62
0
 10
152.2
 20
180.932050808
 30
0.0
 11
158.2
 21
180.932050808
 31
0.0
  0
LINE
  8
0
 62
0
 10
155.2
 20
175.735898385
 30
0.0
 11
152.2
 21
180.932050808
 31
0.0
  0
LINE
  8
0
 62
0
 10
138.3
 20
163.669872981
 30
0.0
 11
133.3
 21
163.669872981
 31
0.0
  0
LINE
  8
0
 62
0
 10
140.8
 20
168.0
 30
0.0
 11
138.3
 21
163.669872981
 31
0.0
  0
LINE
  8
0
 62
0
 10
138.3
 20
172.330127019
 30
0.0
 11
140.8
 21
168.0
 31
0.0
  0
LINE
  8
0
 62
0
 10
133.3
 20
172.330127019
 30
0.0
 11
138.3
 21
172.330127019
 31
0.0
  0
LINE
  8
0
 62
0
 10
130.8
 20
168.0
 30
0.0
 11
133.3
 21
172.330127019
 31
0.0
  0
LINE
  8
0
 62
0
 10
133.3
 20
163.669872981
 30
0.0
 11
130.8
 21
168.0
 31
0.0
  0
LINE
  8
0
 62
0
 10
181.3
 20
205.467949192
 30
0.0
 11
184.3
 21
210.664101615
 31
0.0
  0
LINE
  8
0
 62
0
 10
187.3
 20
205.467949192
 30
0.0
 11
181.3
 21
205.467949192
 31
0.0
  0
LINE
  8
0
 62
0
 10
184.3
 20
210.664101615
 30
0.0
 11
187.3
 21
205.467949192
 31
0.0
  0
LINE
  8
0
 62
0
 10
216.4
 20
113.732050808
 30
0.0
 11
213.4
 21
108.535898385
 31
0.0
  0
LINE
  8
0
 62
0
 10
210.4
 20
113.732050808
 30
0.0
 11
216.4
 21
113.732050808
 31
0.0
  0
LINE
  8
0
 62
0
 10
213.4
 20
108.535898385
 30
0.0
 11
210.4
 21
113.732050808
 31
0.0
  0
LINE
  8
0
 62
0
 10
200.7
 20
130.532050808
 30
0.0
 11
206.7
 21
130.532050808
 31
0.0
  0
LINE
  8
0
 62
0
 10
203.7
 20
125.335898385
 30
0.0
 11
200.7
 21
130.532050808
 31
0.0
  0
LINE
  8
0
 62
0
 10
206.7
 20
130.532050808
 30
0.0
 11
203.7
 21
125.335898385
 31
0.0
  0
LINE
  8
0
 62
0
 10
201.2
 20
113.269872981
 30
0.0
 11
198.7
 21
117.6
 31
0.0
  0
LINE
  8
0
 62
0
 10
206.2
 20
113.269872981
 30
0.0
 11
201.2
 21
113.269872981
 31
0.0
  0
LINE
  8
0
 62
0
 10
208.7
 20
117.6
 30
0.0
 11
206.2
 21
113.269872981
 31
0.0
  0
LINE
  8
0
 62
0
 10
206.2
 20
121.930127019
 30
0.0
 11
208.7
 21
117.6
 31
0.0
  0
LINE
  8
0
 62
0
 10
201.2
 20
121.930127019
 30
0.0
 11
206.2
 21
121.930127019
 31
0.0
  0
LINE
  8
0
 62
0
 10
198.7
 20
117.6
 30
0.0
 11
201.2
 21
121.930127019
 31
0.0
  0
LINE
  8
0
 62
0
 10
200.7
 20
197.732050808
 30
0.0
 11
206.7
 21
197.732050808
 31
0.0
  0
LINE
  8
0
 62
0
 10
203.7
 20
192.535898385
 30
0.0
 11
200.7
 21
197.732050808
 31
0.0
  0
LINE
  8
0
 62
0
 10
206.7
 20
197.732050808
 30
0.0
 11
203.7
 21
192.535898385
 31
0.0
  0
LINE
  8
0
 62
0
 10
196.5
 20
197.269872981
 30
0.0
 11
191.5
 21
197.269872981
 31
0.0
  0
LINE
  8
0
 62
0
 10
199.0
 20
201.6
 30
0.0
 11
196.5
 21
197.269872981
 31
0.0
  0
LINE
  8
0
 62
0
 10
196.5
 20
205.930127019
 30
0.0
 11
199.0
 21
201.6
 31
0.0
  0
LINE
  8
0
 62
0
 10
191.5
 20
205.930127019
 30
0.0
 11
196.5
 21
205.930127019
 31
0.0
  0
LINE
  8
0
 62
0
 10
189.0
 20
201.6
 30
0.0
 11
191.5
 21
205.930127019
 31
0.0
  0
LINE
  8
0
 62
0
 10
191.5
 20
197.269872981
 30
0.0
 11
189.0
 21
201.6
 31
0.0
  0
LINE
  8
0
 62
0
 10
200.7
 20
171.867949192
 30
0.0
 11
203.7
 21
177.064101615
 31
0.0
  0
LINE
  8
0
 62
0
 10
206.7
 20
171.867949192
 30
0.0
 11
200.7
 21
171.867949192
 31
0.0
  0
LINE
  8
0
 62
0
 10
203.7
 20
177.064101615
 30
0.0
 11
206.7
 21
171.867949192
 31
0.0
  0
LINE
  8
0
 62
0
 10
194.0
 20
175.735898385
 30
0.0
 11
191.0
 21
180.932050808
 31
0.0
  0
LINE
  8
0
 62
0
 10
197.0
 20
180.932050808
 30
0.0
 11
194.0
 21
175.735898385
 31
0.0
  0
LINE
  8
0
 62
0
 10
191.0
 20
180.932050808
 30
0.0
 11
197.0
 21
180.932050808
 31
0.0
  0
LINE
  8
0
 62
0
 10
140.5
 20
16.8
 30
0.0
 11
143.0
 21
21.1301270189
 31
0.0
  0
LINE
  8
0
 62
0
 10
143.0
 20
12.4698729811
 30
0.0
 11
140.5
 21
16.8
 31
0.0
  0
LINE
  8
0
 62
0
 10
148.0
 20
12.4698729811
 30
0.0
 11
143.0
 21
12.4698729811
 31
0.0
  0
LINE
  8
0
 62
0
 10
150.5
 20
16.8
 30
0.0
 11
148.0
 21
12.4698729811
 31
0.0
  0
LINE
  8
0
 62
0
 10
148.0
 20
21.1301270189
 30
0.0
 11
150.5
 21
16.8
 31
0.0
  0
LINE
  8
0
 62
0
 10
143.0
 20
21.1301270189
 30
0.0
 11
148.0
 21
21.1301270189
 31
0.0
  0
LINE
  8
0
 62
0
 10
123.6
 20
12.4698729811
 30
0.0
 11
121.1
 21
16.8
 31
0.0
  0
LINE
  8
0
 62
0
 10
128.6
 20
12.4698729811
 30
0.0
 11
123.6
 21
12.4698729811
 31
0.0
  0
LINE
  8
0
 62
0
 10
131.1
 20
16.8
 30
0.0
 11
128.6
 21
12.4698729811
 31
0.0
  0
LINE
  8
0
 62
0
 10
128.6
 20
21.1301270189
 30
0.0
 11
131.1
 21
16.8
 31
0.0
  0
LINE
  8
0
 62
0
 10
123.6
 20
21.1301270189
 30
0.0
 11
128.6
 21
21.1301270189
 31
0.0
  0
LINE
  8
0
 62
0
 10
121.1
 20
16.8
 30
0.0
 11
123.6
 21
21.1301270189
 31
0.0
  0
LINE
  8
0
 62
0
 10
148.5
 20
3.86794919243
 30
0.0
 11
142.5
 21
3.86794919243
 31
0.0
  0
LINE
  8
0
 62
0
 10
145.5
 20
9.06410161514
 30
0.0
 11
148.5
 21
3.86794919243
 31
0.0
  0
LINE
  8
0
 62
0
 10
142.5
 20
3.86794919243
 30
0.0
 11
145.5
 21
9.06410161514
 31
0.0
  0
LINE
  8
0
 62
0
 10
135.8
 20
7.73589838486
 30
0.0
 11
132.8
 21
12.9320508076
 31
0.0
  0
LINE
  8
0
 62
0
 10
138.8
 20
12.9320508076
 30
0.0
 11
135.8
 21
7.73589838486
 31
0.0
  0
LINE
  8
0
 62
0
 10
132.8
 20
12.9320508076
 30
0.0
 11
138.8
 21
12.9320508076
 31
0.0
  0
LINE
  8
0
 62
0
 10
123.1
 20
3.86794919243
 30
0.0
 11
126.1
 21
9.06410161514
 31
0.0
  0
LINE
  8
0
 62
0
 10
129.1
 20
3.86794919243
 30
0.0
 11
123.1
 21
3.86794919243
 31
0.0
  0
LINE
  8
0
 62
0
 10
126.1
 20
9.06410161514
 30
0.0
 11
129.1
 21
3.86794919243
 31
0.0
  0
LINE
  8
0
 62
0
 10
97.0
 20
7.73589838486
 30
0.0
 11
94.0
 21
12.9320508076
 31
0.0
  0
LINE
  8
0
 62
0
 10
100.0
 20
12.9320508076
 30
0.0
 11
97.0
 21
7.73589838486
 31
0.0
  0
LINE
  8
0
 62
0
 10
94.0
 20
12.9320508076
 30
0.0
 11
100.0
 21
12.9320508076
 31
0.0
  0
LINE
  8
0
 62
0
 10
116.4
 20
7.73589838486
 30
0.0
 11
113.4
 21
12.9320508076
 31
0.0
  0
LINE
  8
0
 62
0
 10
119.4
 20
12.9320508076
 30
0.0
 11
116.4
 21
7.73589838486
 31
0.0
  0
LINE
  8
0
 62
0
 10
113.4
 20
12.9320508076
 30
0.0
 11
119.4
 21
12.9320508076
 31
0.0
  0
LINE
  8
0
 62
0
 10
142.5
 20
29.7320508076
 30
0.0
 11
148.5
 21
29.7320508076
 31
0.0
  0
LINE
  8
0
 62
0
 10
145.5
 20
24.5358983849
 30
0.0
 11
142.5
 21
29.7320508076
 31
0.0
  0
LINE
  8
0
 62
0
 10
148.5
 20
29.7320508076
 30
0.0
 11
145.5
 21
24.5358983849
 31
0.0
  0
LINE
  8
0
 62
0
 10
138.8
 20
20.6679491924
 30
0.0
 11
132.8
 21
20.6679491924
 31
0.0
  0
LINE
  8
0
 62
0
 10
135.8
 20
25.8641016151
 30
0.0
 11
138.8
 21
20.6679491924
 31
0.0
  0
LINE
  8
0
 62
0
 10
132.8
 20
20.6679491924
 30
0.0
 11
135.8
 21
25.8641016151
 31
0.0
  0
LINE
  8
0
 62
0
 10
140.8
 20
33.6
 30
0.0
 11
138.3
 21
29.2698729811
 31
0.0
  0
LINE
  8
0
 62
0
 10
138.3
 20
37.9301270189
 30
0.0
 11
140.8
 21
33.6
 31
0.0
  0
LINE
  8
0
 62
0
 10
133.3
 20
37.9301270189
 30
0.0
 11
138.3
 21
37.9301270189
 31
0.0
  0
LINE
  8
0
 62
0
 10
130.8
 20
33.6
 30
0.0
 11
133.3
 21
37.9301270189
 31
0.0
  0
LINE
  8
0
 62
0
 10
133.3
 20
29.2698729811
 30
0.0
 11
130.8
 21
33.6
 31
0.0
  0
LINE
  8
0
 62
0
 10
138.3
 20
29.2698729811
 30
0.0
 11
133.3
 21
29.2698729811
 31
0.0
  0
LINE
  8
0
 62
0
 10
145.5
 20
42.6641016151
 30
0.0
 11
148.5
 21
37.4679491924
 31
0.0
  0
LINE
  8
0
 62
0
 10
142.5
 20
37.4679491924
 30
0.0
 11
145.5
 21
42.6641016151
 31
0.0
  0
LINE
  8
0
 62
0
 10
148.5
 20
37.4679491924
 30
0.0
 11
142.5
 21
37.4679491924
 31
0.0
  0
LINE
  8
0
 62
0
 10
113.9
 20
29.2698729811
 30
0.0
 11
111.4
 21
33.6
 31
0.0
  0
LINE
  8
0
 62
0
 10
118.9
 20
29.2698729811
 30
0.0
 11
113.9
 21
29.2698729811
 31
0.0
  0
LINE
  8
0
 62
0
 10
121.4
 20
33.6
 30
0.0
 11
118.9
 21
29.2698729811
 31
0.0
  0
LINE
  8
0
 62
0
 10
118.9
 20
37.9301270189
 30
0.0
 11
121.4
 21
33.6
 31
0.0
  0
LINE
  8
0
 62
0
 10
113.9
 20
37.9301270189
 30
0.0
 11
118.9
 21
37.9301270189
 31
0.0
  0
LINE
  8
0
 62
0
 10
111.4
 20
33.6
 30
0.0
 11
113.9
 21
37.9301270189
 31
0.0
  0
LINE
  8
0
 62
0
 10
123.1
 20
37.4679491924
 30
0.0
 11
126.1
 21
42.6641016151
 31
0.0
  0
LINE
  8
0
 62
0
 10
129.1
 20
37.4679491924
 30
0.0
 11
123.1
 21
37.4679491924
 31
0.0
  0
LINE
  8
0
 62
0
 10
126.1
 20
42.6641016151
 30
0.0
 11
129.1
 21
37.4679491924
 31
0.0
  0
LINE
  8
0
 62
0
 10
126.1
 20
24.5358983849
 30
0.0
 11
123.1
 21
29.7320508076
 31
0.0
  0
LINE
  8
0
 62
0
 10
129.1
 20
29.7320508076
 30
0.0
 11
126.1
 21
24.5358983849
 31
0.0
  0
LINE
  8
0
 62
0
 10
123.1
 20
29.7320508076
 30
0.0
 11
129.1
 21
29.7320508076
 31
0.0
  0
LINE
  8
0
 62
0
 10
119.4
 20
20.6679491924
 30
0.0
 11
113.4
 21
20.6679491924
 31
0.0
  0
LINE
  8
0
 62
0
 10
116.4
 20
25.8641016151
 30
0.0
 11
119.4
 21
20.6679491924
 31
0.0
  0
LINE
  8
0
 62
0
 10
113.4
 20
20.6679491924
 30
0.0
 11
116.4
 21
25.8641016151
 31
0.0
  0
LINE
  8
0
 62
0
 10
109.7
 20
96.9320508076
 30
0.0
 11
106.7
 21
91.7358983849
 31
0.0
  0
LINE
  8
0
 62
0
 10
103.7
 20
96.9320508076
 30
0.0
 11
109.7
 21
96.9320508076
 31
0.0
  0
LINE
  8
0
 62
0
 10
106.7
 20
91.7358983849
 30
0.0
 11
103.7
 21
96.9320508076
 31
0.0
  0
LINE
  8
0
 62
0
 10
116.4
 20
93.0641016151
 30
0.0
 11
119.4
 21
87.8679491924
 31
0.0
  0
LINE
  8
0
 62
0
 10
113.4
 20
87.8679491924
 30
0.0
 11
116.4
 21
93.0641016151
 31
0.0
  0
LINE
  8
0
 62
0
 10
119.4
 20
87.8679491924
 30
0.0
 11
113.4
 21
87.8679491924
 31
0.0
  0
LINE
  8
0
 62
0
 10
118.9
 20
96.4698729811
 30
0.0
 11
113.9
 21
96.4698729811
 31
0.0
  0
LINE
  8
0
 62
0
 10
121.4
 20
100.8
 30
0.0
 11
118.9
 21
96.4698729811
 31
0.0
  0
LINE
  8
0
 62
0
 10
118.9
 20
105.130127019
 30
0.0
 11
121.4
 21
100.8
 31
0.0
  0
LINE
  8
0
 62
0
 10
113.9
 20
105.130127019
 30
0.0
 11
118.9
 21
105.130127019
 31
0.0
  0
LINE
  8
0
 62
0
 10
111.4
 20
100.8
 30
0.0
 11
113.9
 21
105.130127019
 31
0.0
  0
LINE
  8
0
 62
0
 10
113.9
 20
96.4698729811
 30
0.0
 11
111.4
 21
100.8
 31
0.0
  0
LINE
  8
0
 62
0
 10
138.8
 20
87.8679491924
 30
0.0
 11
132.8
 21
87.8679491924
 31
0.0
  0
LINE
  8
0
 62
0
 10
135.8
 20
93.0641016151
 30
0.0
 11
138.8
 21
87.8679491924
 31
0.0
  0
LINE
  8
0
 62
0
 10
132.8
 20
87.8679491924
 30
0.0
 11
135.8
 21
93.0641016151
 31
0.0
  0
LINE
  8
0
 62
0
 10
126.1
 20
91.7358983849
 30
0.0
 11
123.1
 21
96.9320508076
 31
0.0
  0
LINE
  8
0
 62
0
 10
129.1
 20
96.9320508076
 30
0.0
 11
126.1
 21
91.7358983849
 31
0.0
  0
LINE
  8
0
 62
0
 10
123.1
 20
96.9320508076
 30
0.0
 11
129.1
 21
96.9320508076
 31
0.0
  0
LINE
  8
0
 62
0
 10
121.1
 20
84.0
 30
0.0
 11
123.6
 21
88.3301270189
 31
0.0
  0
LINE
  8
0
 62
0
 10
123.6
 20
79.6698729811
 30
0.0
 11
121.1
 21
84.0
 31
0.0
  0
LINE
  8
0
 62
0
 10
128.6
 20
79.6698729811
 30
0.0
 11
123.6
 21
79.6698729811
 31
0.0
  0
LINE
  8
0
 62
0
 10
131.1
 20
84.0
 30
0.0
 11
128.6
 21
79.6698729811
 31
0.0
  0
LINE
  8
0
 62
0
 10
128.6
 20
88.3301270189
 30
0.0
 11
131.1
 21
84.0
 31
0.0
  0
LINE
  8
0
 62
0
 10
123.6
 20
88.3301270189
 30
0.0
 11
128.6
 21
88.3301270189
 31
0.0
  0
LINE
  8
0
 62
0
 10
138.8
 20
54.2679491924
 30
0.0
 11
132.8
 21
54.2679491924
 31
0.0
  0
LINE
  8
0
 62
0
 10
135.8
 20
59.4641016151
 30
0.0
 11
138.8
 21
54.2679491924
 31
0.0
  0
LINE
  8
0
 62
0
 10
132.8
 20
54.2679491924
 30
0.0
 11
135.8
 21
59.4641016151
 31
0.0
  0
LINE
  8
0
 62
0
 10
138.3
 20
62.8698729811
 30
0.0
 11
133.3
 21
62.8698729811
 31
0.0
  0
LINE
  8
0
 62
0
 10
140.8
 20
67.2
 30
0.0
 11
138.3
 21
62.8698729811
 31
0.0
  0
LINE
  8
0
 62
0
 10
138.3
 20
71.5301270189
 30
0.0
 11
140.8
 21
67.2
 31
0.0
  0
LINE
  8
0
 62
0
 10
133.3
 20
71.5301270189
 30
0.0
 11
138.3
 21
71.5301270189
 31
0.0
  0
LINE
  8
0
 62
0
 10
130.8
 20
67.2
 30
0.0
 11
133.3
 21
71.5301270189
 31
0.0
  0
LINE
  8
0
 62
0
 10
133.3
 20
62.8698729811
 30
0.0
 11
130.8
 21
67.2
 31
0.0
  0
LINE
  8
0
 62
0
 10
126.1
 20
58.1358983849
 30
0.0
 11
123.1
 21
63.3320508076
 31
0.0
  0
LINE
  8
0
 62
0
 10
129.1
 20
63.3320508076
 30
0.0
 11
126.1
 21
58.1358983849
 31
0.0
  0
LINE
  8
0
 62
0
 10
123.1
 20
63.3320508076
 30
0.0
 11
129.1
 21
63.3320508076
 31
0.0
  0
LINE
  8
0
 62
0
 10
103.7
 20
63.3320508076
 30
0.0
 11
109.7
 21
63.3320508076
 31
0.0
  0
LINE
  8
0
 62
0
 10
106.7
 20
58.1358983849
 30
0.0
 11
103.7
 21
63.3320508076
 31
0.0
  0
LINE
  8
0
 62
0
 10
109.7
 20
63.3320508076
 30
0.0
 11
106.7
 21
58.1358983849
 31
0.0
  0
LINE
  8
0
 62
0
 10
119.4
 20
54.2679491924
 30
0.0
 11
113.4
 21
54.2679491924
 31
0.0
  0
LINE
  8
0
 62
0
 10
116.4
 20
59.4641016151
 30
0.0
 11
119.4
 21
54.2679491924
 31
0.0
  0
LINE
  8
0
 62
0
 10
113.4
 20
54.2679491924
 30
0.0
 11
116.4
 21
59.4641016151
 31
0.0
  0
LINE
  8
0
 62
0
 10
118.9
 20
71.5301270189
 30
0.0
 11
121.4
 21
67.2
 31
0.0
  0
LINE
  8
0
 62
0
 10
113.9
 20
71.5301270189
 30
0.0
 11
118.9
 21
71.5301270189
 31
0.0
  0
LINE
  8
0
 62
0
 10
111.4
 20
67.2
 30
0.0
 11
113.9
 21
71.5301270189
 31
0.0
  0
LINE
  8
0
 62
0
 10
113.9
 20
62.8698729811
 30
0.0
 11
111.4
 21
67.2
 31
0.0
  0
LINE
  8
0
 62
0
 10
118.9
 20
62.8698729811
 30
0.0
 11
113.9
 21
62.8698729811
 31
0.0
  0
LINE
  8
0
 62
0
 10
121.4
 20
67.2
 30
0.0
 11
118.9
 21
62.8698729811
 31
0.0
  0
LINE
  8
0
 62
0
 10
138.8
 20
80.1320508076
 30
0.0
 11
135.8
 21
74.9358983849
 31
0.0
  0
LINE
  8
0
 62
0
 10
132.8
 20
80.1320508076
 30
0.0
 11
138.8
 21
80.1320508076
 31
0.0
  0
LINE
  8
0
 62
0
 10
135.8
 20
74.9358983849
 30
0.0
 11
132.8
 21
80.1320508076
 31
0.0
  0
LINE
  8
0
 62
0
 10
123.1
 20
71.0679491924
 30
0.0
 11
126.1
 21
76.2641016151
 31
0.0
  0
LINE
  8
0
 62
0
 10
129.1
 20
71.0679491924
 30
0.0
 11
123.1
 21
71.0679491924
 31
0.0
  0
LINE
  8
0
 62
0
 10
126.1
 20
76.2641016151
 30
0.0
 11
129.1
 21
71.0679491924
 31
0.0
  0
LINE
  8
0
 62
0
 10
116.4
 20
74.9358983849
 30
0.0
 11
113.4
 21
80.1320508076
 31
0.0
  0
LINE
  8
0
 62
0
 10
119.4
 20
80.1320508076
 30
0.0
 11
116.4
 21
74.9358983849
 31
0.0
  0
LINE
  8
0
 62
0
 10
113.4
 20
80.1320508076
 30
0.0
 11
119.4
 21
80.1320508076
 31
0.0
  0
LINE
  8
0
 62
0
 10
143.0
 20
54.7301270189
 30
0.0
 11
148.0
 21
54.7301270189
 31
0.0
  0
LINE
  8
0
 62
0
 10
140.5
 20
50.4
 30
0.0
 11
143.0
 21
54.7301270189
 31
0.0
  0
LINE
  8
0
 62
0
 10
143.0
 20
46.0698729811
 30
0.0
 11
140.5
 21
50.4
 31
0.0
  0
LINE
  8
0
 62
0
 10
148.0
 20
46.0698729811
 30
0.0
 11
143.0
 21
46.0698729811
 31
0.0
  0
LINE
  8
0
 62
0
 10
150.5
 20
50.4
 30
0.0
 11
148.0
 21
46.0698729811
 31
0.0
  0
LINE
  8
0
 62
0
 10
148.0
 20
54.7301270189
 30
0.0
 11
150.5
 21
50.4
 31
0.0
  0
LINE
  8
0
 62
0
 10
132.8
 20
46.5320508076
 30
0.0
 11
138.8
 21
46.5320508076
 31
0.0
  0
LINE
  8
0
 62
0
 10
135.8
 20
41.3358983849
 30
0.0
 11
132.8
 21
46.5320508076
 31
0.0
  0
LINE
  8
0
 62
0
 10
138.8
 20
46.5320508076
 30
0.0
 11
135.8
 21
41.3358983849
 31
0.0
  0
LINE
  8
0
 62
0
 10
119.4
 20
46.5320508076
 30
0.0
 11
116.4
 21
41.3358983849
 31
0.0
  0
LINE
  8
0
 62
0
 10
113.4
 20
46.5320508076
 30
0.0
 11
119.4
 21
46.5320508076
 31
0.0
  0
LINE
  8
0
 62
0
 10
116.4
 20
41.3358983849
 30
0.0
 11
113.4
 21
46.5320508076
 31
0.0
  0
LINE
  8
0
 62
0
 10
128.6
 20
54.7301270189
 30
0.0
 11
131.1
 21
50.4
 31
0.0
  0
LINE
  8
0
 62
0
 10
123.6
 20
54.7301270189
 30
0.0
 11
128.6
 21
54.7301270189
 31
0.0
  0
LINE
  8
0
 62
0
 10
121.1
 20
50.4
 30
0.0
 11
123.6
 21
54.7301270189
 31
0.0
  0
LINE
  8
0
 62
0
 10
123.6
 20
46.0698729811
 30
0.0
 11
121.1
 21
50.4
 31
0.0
  0
LINE
  8
0
 62
0
 10
128.6
 20
46.0698729811
 30
0.0
 11
123.6
 21
46.0698729811
 31
0.0
  0
LINE
  8
0
 62
0
 10
131.1
 20
50.4
 30
0.0
 11
128.6
 21
46.0698729811
 31
0.0
  0
LINE
  8
0
 62
0
 10
148.5
 20
96.9320508076
 30
0.0
 11
145.5
 21
91.7358983849
 31
0.0
  0
LINE
  8
0
 62
0
 10
142.5
 20
96.9320508076
 30
0.0
 11
148.5
 21
96.9320508076
 31
0.0
  0
LINE
  8
0
 62
0
 10
145.5
 20
91.7358983849
 30
0.0
 11
142.5
 21
96.9320508076
 31
0.0
  0
LINE
  8
0
 62
0
 10
186.8
 20
54.7301270189
 30
0.0
 11
189.3
 21
50.4
 31
0.0
  0
LINE
  8
0
 62
0
 10
181.8
 20
54.7301270189
 30
0.0
 11
186.8
 21
54.7301270189
 31
0.0
  0
LINE
  8
0
 62
0
 10
179.3
 20
50.4
 30
0.0
 11
181.8
 21
54.7301270189
 31
0.0
  0
LINE
  8
0
 62
0
 10
181.8
 20
46.0698729811
 30
0.0
 11
179.3
 21
50.4
 31
0.0
  0
LINE
  8
0
 62
0
 10
186.8
 20
46.0698729811
 30
0.0
 11
181.8
 21
46.0698729811
 31
0.0
  0
LINE
  8
0
 62
0
 10
189.3
 20
50.4
 30
0.0
 11
186.8
 21
46.0698729811
 31
0.0
  0
LINE
  8
0
 62
0
 10
184.3
 20
58.1358983849
 30
0.0
 11
181.3
 21
63.3320508076
 31
0.0
  0
LINE
  8
0
 62
0
 10
187.3
 20
63.3320508076
 30
0.0
 11
184.3
 21
58.1358983849
 31
0.0
  0
LINE
  8
0
 62
0
 10
181.3
 20
63.3320508076
 30
0.0
 11
187.3
 21
63.3320508076
 31
0.0
  0
LINE
  8
0
 62
0
 10
174.6
 20
41.3358983849
 30
0.0
 11
171.6
 21
46.5320508076
 31
0.0
  0
LINE
  8
0
 62
0
 10
177.6
 20
46.5320508076
 30
0.0
 11
174.6
 21
41.3358983849
 31
0.0
  0
LINE
  8
0
 62
0
 10
171.6
 20
46.5320508076
 30
0.0
 11
177.6
 21
46.5320508076
 31
0.0
  0
LINE
  8
0
 62
0
 10
174.6
 20
59.4641016151
 30
0.0
 11
177.6
 21
54.2679491924
 31
0.0
  0
LINE
  8
0
 62
0
 10
171.6
 20
54.2679491924
 30
0.0
 11
174.6
 21
59.4641016151
 31
0.0
  0
LINE
  8
0
 62
0
 10
177.6
 20
54.2679491924
 30
0.0
 11
171.6
 21
54.2679491924
 31
0.0
  0
LINE
  8
0
 62
0
 10
177.1
 20
29.2698729811
 30
0.0
 11
172.1
 21
29.2698729811
 31
0.0
  0
LINE
  8
0
 62
0
 10
179.6
 20
33.6
 30
0.0
 11
177.1
 21
29.2698729811
 31
0.0
  0
LINE
  8
0
 62
0
 10
177.1
 20
37.9301270189
 30
0.0
 11
179.6
 21
33.6
 31
0.0
  0
LINE
  8
0
 62
0
 10
172.1
 20
37.9301270189
 30
0.0
 11
177.1
 21
37.9301270189
 31
0.0
  0
LINE
  8
0
 62
0
 10
169.6
 20
33.6
 30
0.0
 11
172.1
 21
37.9301270189
 31
0.0
  0
LINE
  8
0
 62
0
 10
172.1
 20
29.2698729811
 30
0.0
 11
169.6
 21
33.6
 31
0.0
  0
LINE
  8
0
 62
0
 10
181.3
 20
29.7320508076
 30
0.0
 11
187.3
 21
29.7320508076
 31
0.0
  0
LINE
  8
0
 62
0
 10
184.3
 20
24.5358983849
 30
0.0
 11
181.3
 21
29.7320508076
 31
0.0
  0
LINE
  8
0
 62
0
 10
187.3
 20
29.7320508076
 30
0.0
 11
184.3
 21
24.5358983849
 31
0.0
  0
LINE
  8
0
 62
0
 10
167.9
 20
63.3320508076
 30
0.0
 11
164.9
 21
58.1358983849
 31
0.0
  0
LINE
  8
0
 62
0
 10
161.9
 20
63.3320508076
 30
0.0
 11
167.9
 21
63.3320508076
 31
0.0
  0
LINE
  8
0
 62
0
 10
164.9
 20
58.1358983849
 30
0.0
 11
161.9
 21
63.3320508076
 31
0.0
  0
LINE
  8
0
 62
0
 10
164.9
 20
42.6641016151
 30
0.0
 11
167.9
 21
37.4679491924
 31
0.0
  0
LINE
  8
0
 62
0
 10
161.9
 20
37.4679491924
 30
0.0
 11
164.9
 21
42.6641016151
 31
0.0
  0
LINE
  8
0
 62
0
 10
167.9
 20
37.4679491924
 30
0.0
 11
161.9
 21
37.4679491924
 31
0.0
  0
LINE
  8
0
 62
0
 10
164.9
 20
91.7358983849
 30
0.0
 11
161.9
 21
96.9320508076
 31
0.0
  0
LINE
  8
0
 62
0
 10
167.9
 20
96.9320508076
 30
0.0
 11
164.9
 21
91.7358983849
 31
0.0
  0
LINE
  8
0
 62
0
 10
161.9
 20
96.9320508076
 30
0.0
 11
167.9
 21
96.9320508076
 31
0.0
  0
LINE
  8
0
 62
0
 10
177.6
 20
87.8679491924
 30
0.0
 11
171.6
 21
87.8679491924
 31
0.0
  0
LINE
  8
0
 62
0
 10
174.6
 20
93.0641016151
 30
0.0
 11
177.6
 21
87.8679491924
 31
0.0
  0
LINE
  8
0
 62
0
 10
171.6
 20
87.8679491924
 30
0.0
 11
174.6
 21
93.0641016151
 31
0.0
  0
LINE
  8
0
 62
0
 10
179.6
 20
100.8
 30
0.0
 11
177.1
 21
96.4698729811
 31
0.0
  0
LINE
  8
0
 62
0
 10
177.1
 20
105.130127019
 30
0.0
 11
179.6
 21
100.8
 31
0.0
  0
LINE
  8
0
 62
0
 10
172.1
 20
105.130127019
 30
0.0
 11
177.1
 21
105.130127019
 31
0.0
  0
LINE
  8
0
 62
0
 10
169.6
 20
100.8
 30
0.0
 11
172.1
 21
105.130127019
 31
0.0
  0
LINE
  8
0
 62
0
 10
172.1
 20
96.4698729811
 30
0.0
 11
169.6
 21
100.8
 31
0.0
  0
LINE
  8
0
 62
0
 10
177.1
 20
96.4698729811
 30
0.0
 11
172.1
 21
96.4698729811
 31
0.0
  0
LINE
  8
0
 62
0
 10
184.3
 20
91.7358983849
 30
0.0
 11
181.3
 21
96.9320508076
 31
0.0
  0
LINE
  8
0
 62
0
 10
187.3
 20
96.9320508076
 30
0.0
 11
184.3
 21
91.7358983849
 31
0.0
  0
LINE
  8
0
 62
0
 10
181.3
 20
96.9320508076
 30
0.0
 11
187.3
 21
96.9320508076
 31
0.0
  0
LINE
  8
0
 62
0
 10
164.9
 20
76.2641016151
 30
0.0
 11
167.9
 21
71.0679491924
 31
0.0
  0
LINE
  8
0
 62
0
 10
161.9
 20
71.0679491924
 30
0.0
 11
164.9
 21
76.2641016151
 31
0.0
  0
LINE
  8
0
 62
0
 10
167.9
 20
71.0679491924
 30
0.0
 11
161.9
 21
71.0679491924
 31
0.0
  0
LINE
  8
0
 62
0
 10
171.6
 20
80.1320508076
 30
0.0
 11
177.6
 21
80.1320508076
 31
0.0
  0
LINE
  8
0
 62
0
 10
174.6
 20
74.9358983849
 30
0.0
 11
171.6
 21
80.1320508076
 31
0.0
  0
LINE
  8
0
 62
0
 10
177.6
 20
80.1320508076
 30
0.0
 11
174.6
 21
74.9358983849
 31
0.0
  0
LINE
  8
0
 62
0
 10
179.6
 20
67.2
 30
0.0
 11
177.1
 21
62.8698729811
 31
0.0
  0
LINE
  8
0
 62
0
 10
177.1
 20
71.5301270189
 30
0.0
 11
179.6
 21
67.2
 31
0.0
  0
LINE
  8
0
 62
0
 10
172.1
 20
71.5301270189
 30
0.0
 11
177.1
 21
71.5301270189
 31
0.0
  0
LINE
  8
0
 62
0
 10
169.6
 20
67.2
 30
0.0
 11
172.1
 21
71.5301270189
 31
0.0
  0
LINE
  8
0
 62
0
 10
172.1
 20
62.8698729811
 30
0.0
 11
169.6
 21
67.2
 31
0.0
  0
LINE
  8
0
 62
0
 10
177.1
 20
62.8698729811
 30
0.0
 11
172.1
 21
62.8698729811
 31
0.0
  0
LINE
  8
0
 62
0
 10
158.2
 20
87.8679491924
 30
0.0
 11
152.2
 21
87.8679491924
 31
0.0
  0
LINE
  8
0
 62
0
 10
155.2
 20
93.0641016151
 30
0.0
 11
158.2
 21
87.8679491924
 31
0.0
  0
LINE
  8
0
 62
0
 10
152.2
 20
87.8679491924
 30
0.0
 11
155.2
 21
93.0641016151
 31
0.0
  0
LINE
  8
0
 62
0
 10
155.2
 20
74.9358983849
 30
0.0
 11
152.2
 21
80.1320508076
 31
0.0
  0
LINE
  8
0
 62
0
 10
158.2
 20
80.1320508076
 30
0.0
 11
155.2
 21
74.9358983849
 31
0.0
  0
LINE
  8
0
 62
0
 10
152.2
 20
80.1320508076
 30
0.0
 11
158.2
 21
80.1320508076
 31
0.0
  0
LINE
  8
0
 62
0
 10
162.4
 20
88.3301270189
 30
0.0
 11
167.4
 21
88.3301270189
 31
0.0
  0
LINE
  8
0
 62
0
 10
159.9
 20
84.0
 30
0.0
 11
162.4
 21
88.3301270189
 31
0.0
  0
LINE
  8
0
 62
0
 10
162.4
 20
79.6698729811
 30
0.0
 11
159.9
 21
84.0
 31
0.0
  0
LINE
  8
0
 62
0
 10
167.4
 20
79.6698729811
 30
0.0
 11
162.4
 21
79.6698729811
 31
0.0
  0
LINE
  8
0
 62
0
 10
169.9
 20
84.0
 30
0.0
 11
167.4
 21
79.6698729811
 31
0.0
  0
LINE
  8
0
 62
0
 10
167.4
 20
88.3301270189
 30
0.0
 11
169.9
 21
84.0
 31
0.0
  0
LINE
  8
0
 62
0
 10
148.5
 20
71.0679491924
 30
0.0
 11
142.5
 21
71.0679491924
 31
0.0
  0
LINE
  8
0
 62
0
 10
145.5
 20
76.2641016151
 30
0.0
 11
148.5
 21
71.0679491924
 31
0.0
  0
LINE
  8
0
 62
0
 10
142.5
 20
71.0679491924
 30
0.0
 11
145.5
 21
76.2641016151
 31
0.0
  0
LINE
  8
0
 62
0
 10
160.2
 20
100.8
 30
0.0
 11
157.7
 21
96.4698729811
 31
0.0
  0
LINE
  8
0
 62
0
 10
157.7
 20
105.130127019
 30
0.0
 11
160.2
 21
100.8
 31
0.0
  0
LINE
  8
0
 62
0
 10
152.7
 20
105.130127019
 30
0.0
 11
157.7
 21
105.130127019
 31
0.0
  0
LINE
  8
0
 62
0
 10
150.2
 20
100.8
 30
0.0
 11
152.7
 21
105.130127019
 31
0.0
  0
LINE
  8
0
 62
0
 10
152.7
 20
96.4698729811
 30
0.0
 11
150.2
 21
100.8
 31
0.0
  0
LINE
  8
0
 62
0
 10
157.7
 20
96.4698729811
 30
0.0
 11
152.7
 21
96.4698729811
 31
0.0
  0
LINE
  8
0
 62
0
 10
140.5
 20
84.0
 30
0.0
 11
143.0
 21
88.3301270189
 31
0.0
  0
LINE
  8
0
 62
0
 10
143.0
 20
79.6698729811
 30
0.0
 11
140.5
 21
84.0
 31
0.0
  0
LINE
  8
0
 62
0
 10
148.0
 20
79.6698729811
 30
0.0
 11
143.0
 21
79.6698729811
 31
0.0
  0
LINE
  8
0
 62
0
 10
150.5
 20
84.0
 30
0.0
 11
148.0
 21
79.6698729811
 31
0.0
  0
LINE
  8
0
 62
0
 10
148.0
 20
88.3301270189
 30
0.0
 11
150.5
 21
84.0
 31
0.0
  0
LINE
  8
0
 62
0
 10
143.0
 20
88.3301270189
 30
0.0
 11
148.0
 21
88.3301270189
 31
0.0
  0
LINE
  8
0
 62
0
 10
152.2
 20
46.5320508076
 30
0.0
 11
158.2
 21
46.5320508076
 31
0.0
  0
LINE
  8
0
 62
0
 10
155.2
 20
41.3358983849
 30
0.0
 11
152.2
 21
46.5320508076
 31
0.0
  0
LINE
  8
0
 62
0
 10
158.2
 20
46.5320508076
 30
0.0
 11
155.2
 21
41.3358983849
 31
0.0
  0
LINE
  8
0
 62
0
 10
142.5
 20
63.3320508076
 30
0.0
 11
148.5
 21
63.3320508076
 31
0.0
  0
LINE
  8
0
 62
0
 10
145.5
 20
58.1358983849
 30
0.0
 11
142.5
 21
63.3320508076
 31
0.0
  0
LINE
  8
0
 62
0
 10
148.5
 20
63.3320508076
 30
0.0
 11
145.5
 21
58.1358983849
 31
0.0
  0
LINE
  8
0
 62
0
 10
158.2
 20
54.2679491924
 30
0.0
 11
152.2
 21
54.2679491924
 31
0.0
  0
LINE
  8
0
 62
0
 10
155.2
 20
59.4641016151
 30
0.0
 11
158.2
 21
54.2679491924
 31
0.0
  0
LINE
  8
0
 62
0
 10
152.2
 20
54.2679491924
 30
0.0
 11
155.2
 21
59.4641016151
 31
0.0
  0
LINE
  8
0
 62
0
 10
152.2
 20
20.6679491924
 30
0.0
 11
155.2
 21
25.8641016151
 31
0.0
  0
LINE
  8
0
 62
0
 10
158.2
 20
20.6679491924
 30
0.0
 11
152.2
 21
20.6679491924
 31
0.0
  0
LINE
  8
0
 62
0
 10
155.2
 20
25.8641016151
 30
0.0
 11
158.2
 21
20.6679491924
 31
0.0
  0
LINE
  8
0
 62
0
 10
155.2
 20
7.73589838486
 30
0.0
 11
152.2
 21
12.9320508076
 31
0.0
  0
LINE
  8
0
 62
0
 10
158.2
 20
12.9320508076
 30
0.0
 11
155.2
 21
7.73589838486
 31
0.0
  0
LINE
  8
0
 62
0
 10
152.2
 20
12.9320508076
 30
0.0
 11
158.2
 21
12.9320508076
 31
0.0
  0
LINE
  8
0
 62
0
 10
162.4
 20
12.4698729811
 30
0.0
 11
159.9
 21
16.8
 31
0.0
  0
LINE
  8
0
 62
0
 10
167.4
 20
12.4698729811
 30
0.0
 11
162.4
 21
12.4698729811
 31
0.0
  0
LINE
  8
0
 62
0
 10
169.9
 20
16.8
 30
0.0
 11
167.4
 21
12.4698729811
 31
0.0
  0
LINE
  8
0
 62
0
 10
167.4
 20
21.1301270189
 30
0.0
 11
169.9
 21
16.8
 31
0.0
  0
LINE
  8
0
 62
0
 10
162.4
 20
21.1301270189
 30
0.0
 11
167.4
 21
21.1301270189
 31
0.0
  0
LINE
  8
0
 62
0
 10
159.9
 20
16.8
 30
0.0
 11
162.4
 21
21.1301270189
 31
0.0
  0
LINE
  8
0
 62
0
 10
177.6
 20
12.9320508076
 30
0.0
 11
174.6
 21
7.73589838486
 31
0.0
  0
LINE
  8
0
 62
0
 10
171.6
 20
12.9320508076
 30
0.0
 11
177.6
 21
12.9320508076
 31
0.0
  0
LINE
  8
0
 62
0
 10
174.6
 20
7.73589838486
 30
0.0
 11
171.6
 21
12.9320508076
 31
0.0
  0
LINE
  8
0
 62
0
 10
177.6
 20
20.6679491924
 30
0.0
 11
171.6
 21
20.6679491924
 31
0.0
  0
LINE
  8
0
 62
0
 10
174.6
 20
25.8641016151
 30
0.0
 11
177.6
 21
20.6679491924
 31
0.0
  0
LINE
  8
0
 62
0
 10
171.6
 20
20.6679491924
 30
0.0
 11
174.6
 21
25.8641016151
 31
0.0
  0
LINE
  8
0
 62
0
 10
132.8
 20
113.732050808
 30
0.0
 11
138.8
 21
113.732050808
 31
0.0
  0
LINE
  8
0
 62
0
 10
135.8
 20
108.535898385
 30
0.0
 11
132.8
 21
113.732050808
 31
0.0
  0
LINE
  8
0
 62
0
 10
138.8
 20
113.732050808
 30
0.0
 11
135.8
 21
108.535898385
 31
0.0
  0
LINE
  8
0
 62
0
 10
133.3
 20
96.4698729811
 30
0.0
 11
130.8
 21
100.8
 31
0.0
  0
LINE
  8
0
 62
0
 10
138.3
 20
96.4698729811
 30
0.0
 11
133.3
 21
96.4698729811
 31
0.0
  0
LINE
  8
0
 62
0
 10
140.8
 20
100.8
 30
0.0
 11
138.3
 21
96.4698729811
 31
0.0
  0
LINE
  8
0
 62
0
 10
138.3
 20
105.130127019
 30
0.0
 11
140.8
 21
100.8
 31
0.0
  0
LINE
  8
0
 62
0
 10
133.3
 20
105.130127019
 30
0.0
 11
138.3
 21
105.130127019
 31
0.0
  0
LINE
  8
0
 62
0
 10
130.8
 20
100.8
 30
0.0
 11
133.3
 21
105.130127019
 31
0.0
  0
LINE
  8
0
 62
0
 10
158.2
 20
113.732050808
 30
0.0
 11
155.2
 21
108.535898385
 31
0.0
  0
LINE
  8
0
 62
0
 10
152.2
 20
113.732050808
 30
0.0
 11
158.2
 21
113.732050808
 31
0.0
  0
LINE
  8
0
 62
0
 10
155.2
 20
108.535898385
 30
0.0
 11
152.2
 21
113.732050808
 31
0.0
  0
LINE
  8
0
 62
0
 10
148.5
 20
104.667949192
 30
0.0
 11
142.5
 21
104.667949192
 31
0.0
  0
LINE
  8
0
 62
0
 10
145.5
 20
109.864101615
 30
0.0
 11
148.5
 21
104.667949192
 31
0.0
  0
LINE
  8
0
 62
0
 10
142.5
 20
104.667949192
 30
0.0
 11
145.5
 21
109.864101615
 31
0.0
  0
LINE
  8
0
 62
0
 10
171.6
 20
113.732050808
 30
0.0
 11
177.6
 21
113.732050808
 31
0.0
  0
LINE
  8
0
 62
0
 10
174.6
 20
108.535898385
 30
0.0
 11
171.6
 21
113.732050808
 31
0.0
  0
LINE
  8
0
 62
0
 10
177.6
 20
113.732050808
 30
0.0
 11
174.6
 21
108.535898385
 31
0.0
  0
LINE
  8
0
 62
0
 10
135.8
 20
126.664101615
 30
0.0
 11
138.8
 21
121.467949192
 31
0.0
  0
LINE
  8
0
 62
0
 10
132.8
 20
121.467949192
 30
0.0
 11
135.8
 21
126.664101615
 31
0.0
  0
LINE
  8
0
 62
0
 10
138.8
 20
121.467949192
 30
0.0
 11
132.8
 21
121.467949192
 31
0.0
  0
LINE
  8
0
 62
0
 10
158.2
 20
121.467949192
 30
0.0
 11
152.2
 21
121.467949192
 31
0.0
  0
LINE
  8
0
 62
0
 10
155.2
 20
126.664101615
 30
0.0
 11
158.2
 21
121.467949192
 31
0.0
  0
LINE
  8
0
 62
0
 10
152.2
 20
121.467949192
 30
0.0
 11
155.2
 21
126.664101615
 31
0.0
  0
LINE
  8
0
 62
0
 10
116.4
 20
126.664101615
 30
0.0
 11
119.4
 21
121.467949192
 31
0.0
  0
LINE
  8
0
 62
0
 10
113.4
 20
121.467949192
 30
0.0
 11
116.4
 21
126.664101615
 31
0.0
  0
LINE
  8
0
 62
0
 10
119.4
 20
121.467949192
 30
0.0
 11
113.4
 21
121.467949192
 31
0.0
  0
LINE
  8
0
 62
0
 10
123.1
 20
130.532050808
 30
0.0
 11
129.1
 21
130.532050808
 31
0.0
  0
LINE
  8
0
 62
0
 10
126.1
 20
125.335898385
 30
0.0
 11
123.1
 21
130.532050808
 31
0.0
  0
LINE
  8
0
 62
0
 10
129.1
 20
130.532050808
 30
0.0
 11
126.1
 21
125.335898385
 31
0.0
  0
LINE
  8
0
 62
0
 10
34.1
 20
16.8
 30
0.0
 11
31.6
 21
12.4698729811
 31
0.0
  0
LINE
  8
0
 62
0
 10
31.6
 20
21.1301270189
 30
0.0
 11
34.1
 21
16.8
 31
0.0
  0
LINE
  8
0
 62
0
 10
26.6
 20
21.1301270189
 30
0.0
 11
31.6
 21
21.1301270189
 31
0.0
  0
LINE
  8
0
 62
0
 10
24.1
 20
16.8
 30
0.0
 11
26.6
 21
21.1301270189
 31
0.0
  0
LINE
  8
0
 62
0
 10
26.6
 20
12.4698729811
 30
0.0
 11
24.1
 21
16.8
 31
0.0
  0
LINE
  8
0
 62
0
 10
31.6
 20
12.4698729811
 30
0.0
 11
26.6
 21
12.4698729811
 31
0.0
  0
LINE
  8
0
 62
0
 10
38.8
 20
7.73589838486
 30
0.0
 11
35.8
 21
12.9320508076
 31
0.0
  0
LINE
  8
0
 62
0
 10
41.8
 20
12.9320508076
 30
0.0
 11
38.8
 21
7.73589838486
 31
0.0
  0
LINE
  8
0
 62
0
 10
35.8
 20
12.9320508076
 30
0.0
 11
41.8
 21
12.9320508076
 31
0.0
  0
LINE
  8
0
 62
0
 10
29.1
 20
9.06410161514
 30
0.0
 11
32.1
 21
3.86794919243
 31
0.0
  0
LINE
  8
0
 62
0
 10
26.1
 20
3.86794919243
 30
0.0
 11
29.1
 21
9.06410161514
 31
0.0
  0
LINE
  8
0
 62
0
 10
32.1
 20
3.86794919243
 30
0.0
 11
26.1
 21
3.86794919243
 31
0.0
  0
LINE
  8
0
 62
0
 10
48.5
 20
9.06410161514
 30
0.0
 11
51.5
 21
3.86794919243
 31
0.0
  0
LINE
  8
0
 62
0
 10
45.5
 20
3.86794919243
 30
0.0
 11
48.5
 21
9.06410161514
 31
0.0
  0
LINE
  8
0
 62
0
 10
51.5
 20
3.86794919243
 30
0.0
 11
45.5
 21
3.86794919243
 31
0.0
  0
LINE
  8
0
 62
0
 10
53.5
 20
16.8
 30
0.0
 11
51.0
 21
12.4698729811
 31
0.0
  0
LINE
  8
0
 62
0
 10
51.0
 20
21.1301270189
 30
0.0
 11
53.5
 21
16.8
 31
0.0
  0
LINE
  8
0
 62
0
 10
46.0
 20
21.1301270189
 30
0.0
 11
51.0
 21
21.1301270189
 31
0.0
  0
LINE
  8
0
 62
0
 10
43.5
 20
16.8
 30
0.0
 11
46.0
 21
21.1301270189
 31
0.0
  0
LINE
  8
0
 62
0
 10
46.0
 20
12.4698729811
 30
0.0
 11
43.5
 21
16.8
 31
0.0
  0
LINE
  8
0
 62
0
 10
51.0
 20
12.4698729811
 30
0.0
 11
46.0
 21
12.4698729811
 31
0.0
  0
LINE
  8
0
 62
0
 10
45.5
 20
29.7320508076
 30
0.0
 11
51.5
 21
29.7320508076
 31
0.0
  0
LINE
  8
0
 62
0
 10
48.5
 20
24.5358983849
 30
0.0
 11
45.5
 21
29.7320508076
 31
0.0
  0
LINE
  8
0
 62
0
 10
51.5
 20
29.7320508076
 30
0.0
 11
48.5
 21
24.5358983849
 31
0.0
  0
LINE
  8
0
 62
0
 10
41.8
 20
20.6679491924
 30
0.0
 11
35.8
 21
20.6679491924
 31
0.0
  0
LINE
  8
0
 62
0
 10
38.8
 20
25.8641016151
 30
0.0
 11
41.8
 21
20.6679491924
 31
0.0
  0
LINE
  8
0
 62
0
 10
35.8
 20
20.6679491924
 30
0.0
 11
38.8
 21
25.8641016151
 31
0.0
  0
LINE
  8
0
 62
0
 10
36.3
 20
37.9301270189
 30
0.0
 11
41.3
 21
37.9301270189
 31
0.0
  0
LINE
  8
0
 62
0
 10
33.8
 20
33.6
 30
0.0
 11
36.3
 21
37.9301270189
 31
0.0
  0
LINE
  8
0
 62
0
 10
36.3
 20
29.2698729811
 30
0.0
 11
33.8
 21
33.6
 31
0.0
  0
LINE
  8
0
 62
0
 10
41.3
 20
29.2698729811
 30
0.0
 11
36.3
 21
29.2698729811
 31
0.0
  0
LINE
  8
0
 62
0
 10
43.8
 20
33.6
 30
0.0
 11
41.3
 21
29.2698729811
 31
0.0
  0
LINE
  8
0
 62
0
 10
41.3
 20
37.9301270189
 30
0.0
 11
43.8
 21
33.6
 31
0.0
  0
LINE
  8
0
 62
0
 10
29.1
 20
24.5358983849
 30
0.0
 11
26.1
 21
29.7320508076
 31
0.0
  0
LINE
  8
0
 62
0
 10
32.1
 20
29.7320508076
 30
0.0
 11
29.1
 21
24.5358983849
 31
0.0
  0
LINE
  8
0
 62
0
 10
26.1
 20
29.7320508076
 30
0.0
 11
32.1
 21
29.7320508076
 31
0.0
  0
LINE
  8
0
 62
0
 10
29.1
 20
42.6641016151
 30
0.0
 11
32.1
 21
37.4679491924
 31
0.0
  0
LINE
  8
0
 62
0
 10
26.1
 20
37.4679491924
 30
0.0
 11
29.1
 21
42.6641016151
 31
0.0
  0
LINE
  8
0
 62
0
 10
32.1
 20
37.4679491924
 30
0.0
 11
26.1
 21
37.4679491924
 31
0.0
  0
LINE
  8
0
 62
0
 10
80.1
 20
37.9301270189
 30
0.0
 11
82.6
 21
33.6
 31
0.0
  0
LINE
  8
0
 62
0
 10
75.1
 20
37.9301270189
 30
0.0
 11
80.1
 21
37.9301270189
 31
0.0
  0
LINE
  8
0
 62
0
 10
72.6
 20
33.6
 30
0.0
 11
75.1
 21
37.9301270189
 31
0.0
  0
LINE
  8
0
 62
0
 10
75.1
 20
29.2698729811
 30
0.0
 11
72.6
 21
33.6
 31
0.0
  0
LINE
  8
0
 62
0
 10
80.1
 20
29.2698729811
 30
0.0
 11
75.1
 21
29.2698729811
 31
0.0
  0
LINE
  8
0
 62
0
 10
82.6
 20
33.6
 30
0.0
 11
80.1
 21
29.2698729811
 31
0.0
  0
LINE
  8
0
 62
0
 10
90.3
 20
37.4679491924
 30
0.0
 11
84.3
 21
37.4679491924
 31
0.0
  0
LINE
  8
0
 62
0
 10
87.3
 20
42.6641016151
 30
0.0
 11
90.3
 21
37.4679491924
 31
0.0
  0
LINE
  8
0
 62
0
 10
84.3
 20
37.4679491924
 30
0.0
 11
87.3
 21
42.6641016151
 31
0.0
  0
LINE
  8
0
 62
0
 10
84.8
 20
12.4698729811
 30
0.0
 11
82.3
 21
16.8
 31
0.0
  0
LINE
  8
0
 62
0
 10
89.8
 20
12.4698729811
 30
0.0
 11
84.8
 21
12.4698729811
 31
0.0
  0
LINE
  8
0
 62
0
 10
92.3
 20
16.8
 30
0.0
 11
89.8
 21
12.4698729811
 31
0.0
  0
LINE
  8
0
 62
0
 10
89.8
 20
21.1301270189
 30
0.0
 11
92.3
 21
16.8
 31
0.0
  0
LINE
  8
0
 62
0
 10
84.8
 20
21.1301270189
 30
0.0
 11
89.8
 21
21.1301270189
 31
0.0
  0
LINE
  8
0
 62
0
 10
82.3
 20
16.8
 30
0.0
 11
84.8
 21
21.1301270189
 31
0.0
  0
LINE
  8
0
 62
0
 10
90.3
 20
29.7320508076
 30
0.0
 11
87.3
 21
24.5358983849
 31
0.0
  0
LINE
  8
0
 62
0
 10
84.3
 20
29.7320508076
 30
0.0
 11
90.3
 21
29.7320508076
 31
0.0
  0
LINE
  8
0
 62
0
 10
87.3
 20
24.5358983849
 30
0.0
 11
84.3
 21
29.7320508076
 31
0.0
  0
LINE
  8
0
 62
0
 10
74.6
 20
20.6679491924
 30
0.0
 11
77.6
 21
25.8641016151
 31
0.0
  0
LINE
  8
0
 62
0
 10
80.6
 20
20.6679491924
 30
0.0
 11
74.6
 21
20.6679491924
 31
0.0
  0
LINE
  8
0
 62
0
 10
77.6
 20
25.8641016151
 30
0.0
 11
80.6
 21
20.6679491924
 31
0.0
  0
LINE
  8
0
 62
0
 10
77.6
 20
7.73589838486
 30
0.0
 11
74.6
 21
12.9320508076
 31
0.0
  0
LINE
  8
0
 62
0
 10
80.6
 20
12.9320508076
 30
0.0
 11
77.6
 21
7.73589838486
 31
0.0
  0
LINE
  8
0
 62
0
 10
74.6
 20
12.9320508076
 30
0.0
 11
80.6
 21
12.9320508076
 31
0.0
  0
LINE
  8
0
 62
0
 10
61.2
 20
20.6679491924
 30
0.0
 11
55.2
 21
20.6679491924
 31
0.0
  0
LINE
  8
0
 62
0
 10
58.2
 20
25.8641016151
 30
0.0
 11
61.2
 21
20.6679491924
 31
0.0
  0
LINE
  8
0
 62
0
 10
55.2
 20
20.6679491924
 30
0.0
 11
58.2
 21
25.8641016151
 31
0.0
  0
LINE
  8
0
 62
0
 10
55.2
 20
12.9320508076
 30
0.0
 11
61.2
 21
12.9320508076
 31
0.0
  0
LINE
  8
0
 62
0
 10
58.2
 20
7.73589838486
 30
0.0
 11
55.2
 21
12.9320508076
 31
0.0
  0
LINE
  8
0
 62
0
 10
61.2
 20
12.9320508076
 30
0.0
 11
58.2
 21
7.73589838486
 31
0.0
  0
LINE
  8
0
 62
0
 10
64.9
 20
29.7320508076
 30
0.0
 11
70.9
 21
29.7320508076
 31
0.0
  0
LINE
  8
0
 62
0
 10
67.9
 20
24.5358983849
 30
0.0
 11
64.9
 21
29.7320508076
 31
0.0
  0
LINE
  8
0
 62
0
 10
70.9
 20
29.7320508076
 30
0.0
 11
67.9
 21
24.5358983849
 31
0.0
  0
LINE
  8
0
 62
0
 10
70.4
 20
12.4698729811
 30
0.0
 11
65.4
 21
12.4698729811
 31
0.0
  0
LINE
  8
0
 62
0
 10
72.9
 20
16.8
 30
0.0
 11
70.4
 21
12.4698729811
 31
0.0
  0
LINE
  8
0
 62
0
 10
70.4
 20
21.1301270189
 30
0.0
 11
72.9
 21
16.8
 31
0.0
  0
LINE
  8
0
 62
0
 10
65.4
 20
21.1301270189
 30
0.0
 11
70.4
 21
21.1301270189
 31
0.0
  0
LINE
  8
0
 62
0
 10
62.9
 20
16.8
 30
0.0
 11
65.4
 21
21.1301270189
 31
0.0
  0
LINE
  8
0
 62
0
 10
65.4
 20
12.4698729811
 30
0.0
 11
62.9
 21
16.8
 31
0.0
  0
LINE
  8
0
 62
0
 10
70.9
 20
3.86794919243
 30
0.0
 11
64.9
 21
3.86794919243
 31
0.0
  0
LINE
  8
0
 62
0
 10
67.9
 20
9.06410161514
 30
0.0
 11
70.9
 21
3.86794919243
 31
0.0
  0
LINE
  8
0
 62
0
 10
64.9
 20
3.86794919243
 30
0.0
 11
67.9
 21
9.06410161514
 31
0.0
  0
LINE
  8
0
 62
0
 10
84.3
 20
3.86794919243
 30
0.0
 11
87.3
 21
9.06410161514
 31
0.0
  0
LINE
  8
0
 62
0
 10
90.3
 20
3.86794919243
 30
0.0
 11
84.3
 21
3.86794919243
 31
0.0
  0
LINE
  8
0
 62
0
 10
87.3
 20
9.06410161514
 30
0.0
 11
90.3
 21
3.86794919243
 31
0.0
  0
LINE
  8
0
 62
0
 10
58.2
 20
41.3358983849
 30
0.0
 11
55.2
 21
46.5320508076
 31
0.0
  0
LINE
  8
0
 62
0
 10
61.2
 20
46.5320508076
 30
0.0
 11
58.2
 21
41.3358983849
 31
0.0
  0
LINE
  8
0
 62
0
 10
55.2
 20
46.5320508076
 30
0.0
 11
61.2
 21
46.5320508076
 31
0.0
  0
LINE
  8
0
 62
0
 10
109.2
 20
12.4698729811
 30
0.0
 11
104.2
 21
12.4698729811
 31
0.0
  0
LINE
  8
0
 62
0
 10
111.7
 20
16.8
 30
0.0
 11
109.2
 21
12.4698729811
 31
0.0
  0
LINE
  8
0
 62
0
 10
109.2
 20
21.1301270189
 30
0.0
 11
111.7
 21
16.8
 31
0.0
  0
LINE
  8
0
 62
0
 10
104.2
 20
21.1301270189
 30
0.0
 11
109.2
 21
21.1301270189
 31
0.0
  0
LINE
  8
0
 62
0
 10
101.7
 20
16.8
 30
0.0
 11
104.2
 21
21.1301270189
 31
0.0
  0
LINE
  8
0
 62
0
 10
104.2
 20
12.4698729811
 30
0.0
 11
101.7
 21
16.8
 31
0.0
  0
LINE
  8
0
 62
0
 10
103.7
 20
3.86794919243
 30
0.0
 11
106.7
 21
9.06410161514
 31
0.0
  0
LINE
  8
0
 62
0
 10
109.7
 20
3.86794919243
 30
0.0
 11
103.7
 21
3.86794919243
 31
0.0
  0
LINE
  8
0
 62
0
 10
106.7
 20
9.06410161514
 30
0.0
 11
109.7
 21
3.86794919243
 31
0.0
  0
LINE
  8
0
 62
0
 10
109.7
 20
29.7320508076
 30
0.0
 11
106.7
 21
24.5358983849
 31
0.0
  0
LINE
  8
0
 62
0
 10
103.7
 20
29.7320508076
 30
0.0
 11
109.7
 21
29.7320508076
 31
0.0
  0
LINE
  8
0
 62
0
 10
106.7
 20
24.5358983849
 30
0.0
 11
103.7
 21
29.7320508076
 31
0.0
  0
LINE
  8
0
 62
0
 10
97.0
 20
25.8641016151
 30
0.0
 11
100.0
 21
20.6679491924
 31
0.0
  0
LINE
  8
0
 62
0
 10
94.0
 20
20.6679491924
 30
0.0
 11
97.0
 21
25.8641016151
 31
0.0
  0
LINE
  8
0
 62
0
 10
100.0
 20
20.6679491924
 30
0.0
 11
94.0
 21
20.6679491924
 31
0.0
  0
LINE
  8
0
 62
0
 10
106.7
 20
42.6641016151
 30
0.0
 11
109.7
 21
37.4679491924
 31
0.0
  0
LINE
  8
0
 62
0
 10
103.7
 20
37.4679491924
 30
0.0
 11
106.7
 21
42.6641016151
 31
0.0
  0
LINE
  8
0
 62
0
 10
109.7
 20
37.4679491924
 30
0.0
 11
103.7
 21
37.4679491924
 31
0.0
  0
LINE
  8
0
 62
0
 10
70.9
 20
63.3320508076
 30
0.0
 11
67.9
 21
58.1358983849
 31
0.0
  0
LINE
  8
0
 62
0
 10
64.9
 20
63.3320508076
 30
0.0
 11
70.9
 21
63.3320508076
 31
0.0
  0
LINE
  8
0
 62
0
 10
67.9
 20
58.1358983849
 30
0.0
 11
64.9
 21
63.3320508076
 31
0.0
  0
LINE
  8
0
 62
0
 10
67.9
 20
76.2641016151
 30
0.0
 11
70.9
 21
71.0679491924
 31
0.0
  0
LINE
  8
0
 62
0
 10
64.9
 20
71.0679491924
 30
0.0
 11
67.9
 21
76.2641016151
 31
0.0
  0
LINE
  8
0
 62
0
 10
70.9
 20
71.0679491924
 30
0.0
 11
64.9
 21
71.0679491924
 31
0.0
  0
LINE
  8
0
 62
0
 10
55.7
 20
62.8698729811
 30
0.0
 11
53.2
 21
67.2
 31
0.0
  0
LINE
  8
0
 62
0
 10
60.7
 20
62.8698729811
 30
0.0
 11
55.7
 21
62.8698729811
 31
0.0
  0
LINE
  8
0
 62
0
 10
63.2
 20
67.2
 30
0.0
 11
60.7
 21
62.8698729811
 31
0.0
  0
LINE
  8
0
 62
0
 10
60.7
 20
71.5301270189
 30
0.0
 11
63.2
 21
67.2
 31
0.0
  0
LINE
  8
0
 62
0
 10
55.7
 20
71.5301270189
 30
0.0
 11
60.7
 21
71.5301270189
 31
0.0
  0
LINE
  8
0
 62
0
 10
53.2
 20
67.2
 30
0.0
 11
55.7
 21
71.5301270189
 31
0.0
  0
LINE
  8
0
 62
0
 10
32.1
 20
63.3320508076
 30
0.0
 11
29.1
 21
58.1358983849
 31
0.0
  0
LINE
  8
0
 62
0
 10
26.1
 20
63.3320508076
 30
0.0
 11
32.1
 21
63.3320508076
 31
0.0
  0
LINE
  8
0
 62
0
 10
29.1
 20
58.1358983849
 30
0.0
 11
26.1
 21
63.3320508076
 31
0.0
  0
LINE
  8
0
 62
0
 10
41.3
 20
62.8698729811
 30
0.0
 11
36.3
 21
62.8698729811
 31
0.0
  0
LINE
  8
0
 62
0
 10
43.8
 20
67.2
 30
0.0
 11
41.3
 21
62.8698729811
 31
0.0
  0
LINE
  8
0
 62
0
 10
41.3
 20
71.5301270189
 30
0.0
 11
43.8
 21
67.2
 31
0.0
  0
LINE
  8
0
 62
0
 10
36.3
 20
71.5301270189
 30
0.0
 11
41.3
 21
71.5301270189
 31
0.0
  0
LINE
  8
0
 62
0
 10
33.8
 20
67.2
 30
0.0
 11
36.3
 21
71.5301270189
 31
0.0
  0
LINE
  8
0
 62
0
 10
36.3
 20
62.8698729811
 30
0.0
 11
33.8
 21
67.2
 31
0.0
  0
LINE
  8
0
 62
0
 10
31.6
 20
46.0698729811
 30
0.0
 11
26.6
 21
46.0698729811
 31
0.0
  0
LINE
  8
0
 62
0
 10
34.1
 20
50.4
 30
0.0
 11
31.6
 21
46.0698729811
 31
0.0
  0
LINE
  8
0
 62
0
 10
31.6
 20
54.7301270189
 30
0.0
 11
34.1
 21
50.4
 31
0.0
  0
LINE
  8
0
 62
0
 10
26.6
 20
54.7301270189
 30
0.0
 11
31.6
 21
54.7301270189
 31
0.0
  0
LINE
  8
0
 62
0
 10
24.1
 20
50.4
 30
0.0
 11
26.6
 21
54.7301270189
 31
0.0
  0
LINE
  8
0
 62
0
 10
26.6
 20
46.0698729811
 30
0.0
 11
24.1
 21
50.4
 31
0.0
  0
LINE
  8
0
 62
0
 10
41.8
 20
54.2679491924
 30
0.0
 11
35.8
 21
54.2679491924
 31
0.0
  0
LINE
  8
0
 62
0
 10
38.8
 20
59.4641016151
 30
0.0
 11
41.8
 21
54.2679491924
 31
0.0
  0
LINE
  8
0
 62
0
 10
35.8
 20
54.2679491924
 30
0.0
 11
38.8
 21
59.4641016151
 31
0.0
  0
LINE
  8
0
 62
0
 10
38.8
 20
41.3358983849
 30
0.0
 11
35.8
 21
46.5320508076
 31
0.0
  0
LINE
  8
0
 62
0
 10
41.8
 20
46.5320508076
 30
0.0
 11
38.8
 21
41.3358983849
 31
0.0
  0
LINE
  8
0
 62
0
 10
35.8
 20
46.5320508076
 30
0.0
 11
41.8
 21
46.5320508076
 31
0.0
  0
LINE
  8
0
 62
0
 10
43.5
 20
50.4
 30
0.0
 11
46.0
 21
54.7301270189
 31
0.0
  0
LINE
  8
0
 62
0
 10
46.0
 20
46.0698729811
 30
0.0
 11
43.5
 21
50.4
 31
0.0
  0
LINE
  8
0
 62
0
 10
51.0
 20
46.0698729811
 30
0.0
 11
46.0
 21
46.0698729811
 31
0.0
  0
LINE
  8
0
 62
0
 10
53.5
 20
50.4
 30
0.0
 11
51.0
 21
46.0698729811
 31
0.0
  0
LINE
  8
0
 62
0
 10
51.0
 20
54.7301270189
 30
0.0
 11
53.5
 21
50.4
 31
0.0
  0
LINE
  8
0
 62
0
 10
46.0
 20
54.7301270189
 30
0.0
 11
51.0
 21
54.7301270189
 31
0.0
  0
LINE
  8
0
 62
0
 10
80.6
 20
46.5320508076
 30
0.0
 11
77.6
 21
41.3358983849
 31
0.0
  0
LINE
  8
0
 62
0
 10
74.6
 20
46.5320508076
 30
0.0
 11
80.6
 21
46.5320508076
 31
0.0
  0
LINE
  8
0
 62
0
 10
77.6
 20
41.3358983849
 30
0.0
 11
74.6
 21
46.5320508076
 31
0.0
  0
LINE
  8
0
 62
0
 10
64.9
 20
37.4679491924
 30
0.0
 11
67.9
 21
42.6641016151
 31
0.0
  0
LINE
  8
0
 62
0
 10
70.9
 20
37.4679491924
 30
0.0
 11
64.9
 21
37.4679491924
 31
0.0
  0
LINE
  8
0
 62
0
 10
67.9
 20
42.6641016151
 30
0.0
 11
70.9
 21
37.4679491924
 31
0.0
  0
LINE
  8
0
 62
0
 10
72.9
 20
50.4
 30
0.0
 11
70.4
 21
46.0698729811
 31
0.0
  0
LINE
  8
0
 62
0
 10
70.4
 20
54.7301270189
 30
0.0
 11
72.9
 21
50.4
 31
0.0
  0
LINE
  8
0
 62
0
 10
65.4
 20
54.7301270189
 30
0.0
 11
70.4
 21
54.7301270189
 31
0.0
  0
LINE
  8
0
 62
0
 10
62.9
 20
50.4
 30
0.0
 11
65.4
 21
54.7301270189
 31
0.0
  0
LINE
  8
0
 62
0
 10
65.4
 20
46.0698729811
 30
0.0
 11
62.9
 21
50.4
 31
0.0
  0
LINE
  8
0
 62
0
 10
70.4
 20
46.0698729811
 30
0.0
 11
65.4
 21
46.0698729811
 31
0.0
  0
LINE
  8
0
 62
0
 10
77.6
 20
59.4641016151
 30
0.0
 11
80.6
 21
54.2679491924
 31
0.0
  0
LINE
  8
0
 62
0
 10
74.6
 20
54.2679491924
 30
0.0
 11
77.6
 21
59.4641016151
 31
0.0
  0
LINE
  8
0
 62
0
 10
80.6
 20
54.2679491924
 30
0.0
 11
74.6
 21
54.2679491924
 31
0.0
  0
LINE
  8
0
 62
0
 10
51.5
 20
37.4679491924
 30
0.0
 11
45.5
 21
37.4679491924
 31
0.0
  0
LINE
  8
0
 62
0
 10
48.5
 20
42.6641016151
 30
0.0
 11
51.5
 21
37.4679491924
 31
0.0
  0
LINE
  8
0
 62
0
 10
45.5
 20
37.4679491924
 30
0.0
 11
48.5
 21
42.6641016151
 31
0.0
  0
LINE
  8
0
 62
0
 10
63.2
 20
33.6
 30
0.0
 11
60.7
 21
29.2698729811
 31
0.0
  0
LINE
  8
0
 62
0
 10
60.7
 20
37.9301270189
 30
0.0
 11
63.2
 21
33.6
 31
0.0
  0
LINE
  8
0
 62
0
 10
55.7
 20
37.9301270189
 30
0.0
 11
60.7
 21
37.9301270189
 31
0.0
  0
LINE
  8
0
 62
0
 10
53.2
 20
33.6
 30
0.0
 11
55.7
 21
37.9301270189
 31
0.0
  0
LINE
  8
0
 62
0
 10
55.7
 20
29.2698729811
 30
0.0
 11
53.2
 21
33.6
 31
0.0
  0
LINE
  8
0
 62
0
 10
60.7
 20
29.2698729811
 30
0.0
 11
55.7
 21
29.2698729811
 31
0.0
  0
LINE
  8
0
 62
0
 10
55.2
 20
54.2679491924
 30
0.0
 11
58.2
 21
59.4641016151
 31
0.0
  0
LINE
  8
0
 62
0
 10
61.2
 20
54.2679491924
 30
0.0
 11
55.2
 21
54.2679491924
 31
0.0
  0
LINE
  8
0
 62
0
 10
58.2
 20
59.4641016151
 30
0.0
 11
61.2
 21
54.2679491924
 31
0.0
  0
LINE
  8
0
 62
0
 10
99.5
 20
62.8698729811
 30
0.0
 11
94.5
 21
62.8698729811
 31
0.0
  0
LINE
  8
0
 62
0
 10
102.0
 20
67.2
 30
0.0
 11
99.5
 21
62.8698729811
 31
0.0
  0
LINE
  8
0
 62
0
 10
99.5
 20
71.5301270189
 30
0.0
 11
102.0
 21
67.2
 31
0.0
  0
LINE
  8
0
 62
0
 10
94.5
 20
71.5301270189
 30
0.0
 11
99.5
 21
71.5301270189
 31
0.0
  0
LINE
  8
0
 62
0
 10
92.0
 20
67.2
 30
0.0
 11
94.5
 21
71.5301270189
 31
0.0
  0
LINE
  8
0
 62
0
 10
94.5
 20
62.8698729811
 30
0.0
 11
92.0
 21
67.2
 31
0.0
  0
LINE
  8
0
 62
0
 10
90.3
 20
71.0679491924
 30
0.0
 11
84.3
 21
71.0679491924
 31
0.0
  0
LINE
  8
0
 62
0
 10
87.3
 20
76.2641016151
 30
0.0
 11
90.3
 21
71.0679491924
 31
0.0
  0
LINE
  8
0
 62
0
 10
84.3
 20
71.0679491924
 30
0.0
 11
87.3
 21
76.2641016151
 31
0.0
  0
LINE
  8
0
 62
0
 10
84.8
 20
46.0698729811
 30
0.0
 11
82.3
 21
50.4
 31
0.0
  0
LINE
  8
0
 62
0
 10
89.8
 20
46.0698729811
 30
0.0
 11
84.8
 21
46.0698729811
 31
0.0
  0
LINE
  8
0
 62
0
 10
92.3
 20
50.4
 30
0.0
 11
89.8
 21
46.0698729811
 31
0.0
  0
LINE
  8
0
 62
0
 10
89.8
 20
54.7301270189
 30
0.0
 11
92.3
 21
50.4
 31
0.0
  0
LINE
  8
0
 62
0
 10
84.8
 20
54.7301270189
 30
0.0
 11
89.8
 21
54.7301270189
 31
0.0
  0
LINE
  8
0
 62
0
 10
82.3
 20
50.4
 30
0.0
 11
84.8
 21
54.7301270189
 31
0.0
  0
LINE
  8
0
 62
0
 10
97.0
 20
41.3358983849
 30
0.0
 11
94.0
 21
46.5320508076
 31
0.0
  0
LINE
  8
0
 62
0
 10
100.0
 20
46.5320508076
 30
0.0
 11
97.0
 21
41.3358983849
 31
0.0
  0
LINE
  8
0
 62
0
 10
94.0
 20
46.5320508076
 30
0.0
 11
100.0
 21
46.5320508076
 31
0.0
  0
LINE
  8
0
 62
0
 10
99.5
 20
37.9301270189
 30
0.0
 11
102.0
 21
33.6
 31
0.0
  0
LINE
  8
0
 62
0
 10
94.5
 20
37.9301270189
 30
0.0
 11
99.5
 21
37.9301270189
 31
0.0
  0
LINE
  8
0
 62
0
 10
92.0
 20
33.6
 30
0.0
 11
94.5
 21
37.9301270189
 31
0.0
  0
LINE
  8
0
 62
0
 10
94.5
 20
29.2698729811
 30
0.0
 11
92.0
 21
33.6
 31
0.0
  0
LINE
  8
0
 62
0
 10
99.5
 20
29.2698729811
 30
0.0
 11
94.5
 21
29.2698729811
 31
0.0
  0
LINE
  8
0
 62
0
 10
102.0
 20
33.6
 30
0.0
 11
99.5
 21
29.2698729811
 31
0.0
  0
LINE
  8
0
 62
0
 10
82.6
 20
100.8
 30
0.0
 11
80.1
 21
96.4698729811
 31
0.0
  0
LINE
  8
0
 62
0
 10
80.1
 20
105.130127019
 30
0.0
 11
82.6
 21
100.8
 31
0.0
  0
LINE
  8
0
 62
0
 10
75.1
 20
105.130127019
 30
0.0
 11
80.1
 21
105.130127019
 31
0.0
  0
LINE
  8
0
 62
0
 10
72.6
 20
100.8
 30
0.0
 11
75.1
 21
105.130127019
 31
0.0
  0
LINE
  8
0
 62
0
 10
75.1
 20
96.4698729811
 30
0.0
 11
72.6
 21
100.8
 31
0.0
  0
LINE
  8
0
 62
0
 10
80.1
 20
96.4698729811
 30
0.0
 11
75.1
 21
96.4698729811
 31
0.0
  0
LINE
  8
0
 62
0
 10
80.6
 20
113.732050808
 30
0.0
 11
77.6
 21
108.535898385
 31
0.0
  0
LINE
  8
0
 62
0
 10
74.6
 20
113.732050808
 30
0.0
 11
80.6
 21
113.732050808
 31
0.0
  0
LINE
  8
0
 62
0
 10
77.6
 20
108.535898385
 30
0.0
 11
74.6
 21
113.732050808
 31
0.0
  0
LINE
  8
0
 62
0
 10
67.9
 20
109.864101615
 30
0.0
 11
70.9
 21
104.667949192
 31
0.0
  0
LINE
  8
0
 62
0
 10
64.9
 20
104.667949192
 30
0.0
 11
67.9
 21
109.864101615
 31
0.0
  0
LINE
  8
0
 62
0
 10
70.9
 20
104.667949192
 30
0.0
 11
64.9
 21
104.667949192
 31
0.0
  0
LINE
  8
0
 62
0
 10
70.9
 20
96.9320508076
 30
0.0
 11
67.9
 21
91.7358983849
 31
0.0
  0
LINE
  8
0
 62
0
 10
64.9
 20
96.9320508076
 30
0.0
 11
70.9
 21
96.9320508076
 31
0.0
  0
LINE
  8
0
 62
0
 10
67.9
 20
91.7358983849
 30
0.0
 11
64.9
 21
96.9320508076
 31
0.0
  0
LINE
  8
0
 62
0
 10
36.3
 20
105.130127019
 30
0.0
 11
41.3
 21
105.130127019
 31
0.0
  0
LINE
  8
0
 62
0
 10
33.8
 20
100.8
 30
0.0
 11
36.3
 21
105.130127019
 31
0.0
  0
LINE
  8
0
 62
0
 10
36.3
 20
96.4698729811
 30
0.0
 11
33.8
 21
100.8
 31
0.0
  0
LINE
  8
0
 62
0
 10
41.3
 20
96.4698729811
 30
0.0
 11
36.3
 21
96.4698729811
 31
0.0
  0
LINE
  8
0
 62
0
 10
43.8
 20
100.8
 30
0.0
 11
41.3
 21
96.4698729811
 31
0.0
  0
LINE
  8
0
 62
0
 10
41.3
 20
105.130127019
 30
0.0
 11
43.8
 21
100.8
 31
0.0
  0
LINE
  8
0
 62
0
 10
48.5
 20
109.864101615
 30
0.0
 11
51.5
 21
104.667949192
 31
0.0
  0
LINE
  8
0
 62
0
 10
45.5
 20
104.667949192
 30
0.0
 11
48.5
 21
109.864101615
 31
0.0
  0
LINE
  8
0
 62
0
 10
51.5
 20
104.667949192
 30
0.0
 11
45.5
 21
104.667949192
 31
0.0
  0
LINE
  8
0
 62
0
 10
61.2
 20
113.732050808
 30
0.0
 11
58.2
 21
108.535898385
 31
0.0
  0
LINE
  8
0
 62
0
 10
55.2
 20
113.732050808
 30
0.0
 11
61.2
 21
113.732050808
 31
0.0
  0
LINE
  8
0
 62
0
 10
58.2
 20
108.535898385
 30
0.0
 11
55.2
 21
113.732050808
 31
0.0
  0
LINE
  8
0
 62
0
 10
53.5
 20
117.6
 30
0.0
 11
51.0
 21
113.269872981
 31
0.0
  0
LINE
  8
0
 62
0
 10
51.0
 20
121.930127019
 30
0.0
 11
53.5
 21
117.6
 31
0.0
  0
LINE
  8
0
 62
0
 10
46.0
 20
121.930127019
 30
0.0
 11
51.0
 21
121.930127019
 31
0.0
  0
LINE
  8
0
 62
0
 10
43.5
 20
117.6
 30
0.0
 11
46.0
 21
121.930127019
 31
0.0
  0
LINE
  8
0
 62
0
 10
46.0
 20
113.269872981
 30
0.0
 11
43.5
 21
117.6
 31
0.0
  0
LINE
  8
0
 62
0
 10
51.0
 20
113.269872981
 30
0.0
 11
46.0
 21
113.269872981
 31
0.0
  0
LINE
  8
0
 62
0
 10
35.8
 20
87.8679491924
 30
0.0
 11
38.8
 21
93.0641016151
 31
0.0
  0
LINE
  8
0
 62
0
 10
41.8
 20
87.8679491924
 30
0.0
 11
35.8
 21
87.8679491924
 31
0.0
  0
LINE
  8
0
 62
0
 10
38.8
 20
93.0641016151
 30
0.0
 11
41.8
 21
87.8679491924
 31
0.0
  0
LINE
  8
0
 62
0
 10
51.0
 20
88.3301270189
 30
0.0
 11
53.5
 21
84.0
 31
0.0
  0
LINE
  8
0
 62
0
 10
46.0
 20
88.3301270189
 30
0.0
 11
51.0
 21
88.3301270189
 31
0.0
  0
LINE
  8
0
 62
0
 10
43.5
 20
84.0
 30
0.0
 11
46.0
 21
88.3301270189
 31
0.0
  0
LINE
  8
0
 62
0
 10
46.0
 20
79.6698729811
 30
0.0
 11
43.5
 21
84.0
 31
0.0
  0
LINE
  8
0
 62
0
 10
51.0
 20
79.6698729811
 30
0.0
 11
46.0
 21
79.6698729811
 31
0.0
  0
LINE
  8
0
 62
0
 10
53.5
 20
84.0
 30
0.0
 11
51.0
 21
79.6698729811
 31
0.0
  0
LINE
  8
0
 62
0
 10
74.6
 20
87.8679491924
 30
0.0
 11
77.6
 21
93.0641016151
 31
0.0
  0
LINE
  8
0
 62
0
 10
80.6
 20
87.8679491924
 30
0.0
 11
74.6
 21
87.8679491924
 31
0.0
  0
LINE
  8
0
 62
0
 10
77.6
 20
93.0641016151
 30
0.0
 11
80.6
 21
87.8679491924
 31
0.0
  0
LINE
  8
0
 62
0
 10
74.6
 20
80.1320508076
 30
0.0
 11
80.6
 21
80.1320508076
 31
0.0
  0
LINE
  8
0
 62
0
 10
77.6
 20
74.9358983849
 30
0.0
 11
74.6
 21
80.1320508076
 31
0.0
  0
LINE
  8
0
 62
0
 10
80.6
 20
80.1320508076
 30
0.0
 11
77.6
 21
74.9358983849
 31
0.0
  0
LINE
  8
0
 62
0
 10
89.8
 20
79.6698729811
 30
0.0
 11
84.8
 21
79.6698729811
 31
0.0
  0
LINE
  8
0
 62
0
 10
92.3
 20
84.0
 30
0.0
 11
89.8
 21
79.6698729811
 31
0.0
  0
LINE
  8
0
 62
0
 10
89.8
 20
88.3301270189
 30
0.0
 11
92.3
 21
84.0
 31
0.0
  0
LINE
  8
0
 62
0
 10
84.8
 20
88.3301270189
 30
0.0
 11
89.8
 21
88.3301270189
 31
0.0
  0
LINE
  8
0
 62
0
 10
82.3
 20
84.0
 30
0.0
 11
84.8
 21
88.3301270189
 31
0.0
  0
LINE
  8
0
 62
0
 10
84.8
 20
79.6698729811
 30
0.0
 11
82.3
 21
84.0
 31
0.0
  0
LINE
  8
0
 62
0
 10
65.4
 20
79.6698729811
 30
0.0
 11
62.9
 21
84.0
 31
0.0
  0
LINE
  8
0
 62
0
 10
70.4
 20
79.6698729811
 30
0.0
 11
65.4
 21
79.6698729811
 31
0.0
  0
LINE
  8
0
 62
0
 10
72.9
 20
84.0
 30
0.0
 11
70.4
 21
79.6698729811
 31
0.0
  0
LINE
  8
0
 62
0
 10
70.4
 20
88.3301270189
 30
0.0
 11
72.9
 21
84.0
 31
0.0
  0
LINE
  8
0
 62
0
 10
65.4
 20
88.3301270189
 30
0.0
 11
70.4
 21
88.3301270189
 31
0.0
  0
LINE
  8
0
 62
0
 10
62.9
 20
84.0
 30
0.0
 11
65.4
 21
88.3301270189
 31
0.0
  0
LINE
  8
0
 62
0
 10
99.5
 20
96.4698729811
 30
0.0
 11
94.5
 21
96.4698729811
 31
0.0
  0
LINE
  8
0
 62
0
 10
102.0
 20
100.8
 30
0.0
 11
99.5
 21
96.4698729811
 31
0.0
  0
LINE
  8
0
 62
0
 10
99.5
 20
105.130127019
 30
0.0
 11
102.0
 21
100.8
 31
0.0
  0
LINE
  8
0
 62
0
 10
94.5
 20
105.130127019
 30
0.0
 11
99.5
 21
105.130127019
 31
0.0
  0
LINE
  8
0
 62
0
 10
92.0
 20
100.8
 30
0.0
 11
94.5
 21
105.130127019
 31
0.0
  0
LINE
  8
0
 62
0
 10
94.5
 20
96.4698729811
 30
0.0
 11
92.0
 21
100.8
 31
0.0
  0
LINE
  8
0
 62
0
 10
101.7
 20
117.6
 30
0.0
 11
104.2
 21
121.930127019
 31
0.0
  0
LINE
  8
0
 62
0
 10
104.2
 20
113.269872981
 30
0.0
 11
101.7
 21
117.6
 31
0.0
  0
LINE
  8
0
 62
0
 10
109.2
 20
113.269872981
 30
0.0
 11
104.2
 21
113.269872981
 31
0.0
  0
LINE
  8
0
 62
0
 10
111.7
 20
117.6
 30
0.0
 11
109.2
 21
113.269872981
 31
0.0
  0
LINE
  8
0
 62
0
 10
109.2
 20
121.930127019
 30
0.0
 11
111.7
 21
117.6
 31
0.0
  0
LINE
  8
0
 62
0
 10
104.2
 20
121.930127019
 30
0.0
 11
109.2
 21
121.930127019
 31
0.0
  0
LINE
  8
0
 62
0
 10
109.7
 20
104.667949192
 30
0.0
 11
103.7
 21
104.667949192
 31
0.0
  0
LINE
  8
0
 62
0
 10
106.7
 20
109.864101615
 30
0.0
 11
109.7
 21
104.667949192
 31
0.0
  0
LINE
  8
0
 62
0
 10
103.7
 20
104.667949192
 30
0.0
 11
106.7
 21
109.864101615
 31
0.0
  0
LINE
  8
0
 62
0
 10
61.2
 20
80.1320508076
 30
0.0
 11
58.2
 21
74.9358983849
 31
0.0
  0
LINE
  8
0
 62
0
 10
55.2
 20
80.1320508076
 30
0.0
 11
61.2
 21
80.1320508076
 31
0.0
  0
LINE
  8
0
 62
0
 10
58.2
 20
74.9358983849
 30
0.0
 11
55.2
 21
80.1320508076
 31
0.0
  0
LINE
  8
0
 62
0
 10
45.5
 20
71.0679491924
 30
0.0
 11
48.5
 21
76.2641016151
 31
0.0
  0
LINE
  8
0
 62
0
 10
51.5
 20
71.0679491924
 30
0.0
 11
45.5
 21
71.0679491924
 31
0.0
  0
LINE
  8
0
 62
0
 10
48.5
 20
76.2641016151
 30
0.0
 11
51.5
 21
71.0679491924
 31
0.0
  0
LINE
  8
0
 62
0
 10
31.6
 20
88.3301270189
 30
0.0
 11
34.1
 21
84.0
 31
0.0
  0
LINE
  8
0
 62
0
 10
26.6
 20
88.3301270189
 30
0.0
 11
31.6
 21
88.3301270189
 31
0.0
  0
LINE
  8
0
 62
0
 10
24.1
 20
84.0
 30
0.0
 11
26.6
 21
88.3301270189
 31
0.0
  0
LINE
  8
0
 62
0
 10
26.6
 20
79.6698729811
 30
0.0
 11
24.1
 21
84.0
 31
0.0
  0
LINE
  8
0
 62
0
 10
31.6
 20
79.6698729811
 30
0.0
 11
26.6
 21
79.6698729811
 31
0.0
  0
LINE
  8
0
 62
0
 10
34.1
 20
84.0
 30
0.0
 11
31.6
 21
79.6698729811
 31
0.0
  0
LINE
  8
0
 62
0
 10
32.1
 20
71.0679491924
 30
0.0
 11
26.1
 21
71.0679491924
 31
0.0
  0
LINE
  8
0
 62
0
 10
29.1
 20
76.2641016151
 30
0.0
 11
32.1
 21
71.0679491924
 31
0.0
  0
LINE
  8
0
 62
0
 10
26.1
 20
71.0679491924
 30
0.0
 11
29.1
 21
76.2641016151
 31
0.0
  0
LINE
  8
0
 62
0
 10
35.8
 20
80.1320508076
 30
0.0
 11
41.8
 21
80.1320508076
 31
0.0
  0
LINE
  8
0
 62
0
 10
38.8
 20
74.9358983849
 30
0.0
 11
35.8
 21
80.1320508076
 31
0.0
  0
LINE
  8
0
 62
0
 10
41.8
 20
80.1320508076
 30
0.0
 11
38.8
 21
74.9358983849
 31
0.0
  0
LINE
  8
0
 62
0
 10
32.1
 20
96.9320508076
 30
0.0
 11
29.1
 21
91.7358983849
 31
0.0
  0
LINE
  8
0
 62
0
 10
26.1
 20
96.9320508076
 30
0.0
 11
32.1
 21
96.9320508076
 31
0.0
  0
LINE
  8
0
 62
0
 10
29.1
 20
91.7358983849
 30
0.0
 11
26.1
 21
96.9320508076
 31
0.0
  0
LINE
  8
0
 62
0
 10
45.5
 20
96.9320508076
 30
0.0
 11
51.5
 21
96.9320508076
 31
0.0
  0
LINE
  8
0
 62
0
 10
48.5
 20
91.7358983849
 30
0.0
 11
45.5
 21
96.9320508076
 31
0.0
  0
LINE
  8
0
 62
0
 10
51.5
 20
96.9320508076
 30
0.0
 11
48.5
 21
91.7358983849
 31
0.0
  0
LINE
  8
0
 62
0
 10
63.2
 20
100.8
 30
0.0
 11
60.7
 21
96.4698729811
 31
0.0
  0
LINE
  8
0
 62
0
 10
60.7
 20
105.130127019
 30
0.0
 11
63.2
 21
100.8
 31
0.0
  0
LINE
  8
0
 62
0
 10
55.7
 20
105.130127019
 30
0.0
 11
60.7
 21
105.130127019
 31
0.0
  0
LINE
  8
0
 62
0
 10
53.2
 20
100.8
 30
0.0
 11
55.7
 21
105.130127019
 31
0.0
  0
LINE
  8
0
 62
0
 10
55.7
 20
96.4698729811
 30
0.0
 11
53.2
 21
100.8
 31
0.0
  0
LINE
  8
0
 62
0
 10
60.7
 20
96.4698729811
 30
0.0
 11
55.7
 21
96.4698729811
 31
0.0
  0
LINE
  8
0
 62
0
 10
58.2
 20
93.0641016151
 30
0.0
 11
61.2
 21
87.8679491924
 31
0.0
  0
LINE
  8
0
 62
0
 10
55.2
 20
87.8679491924
 30
0.0
 11
58.2
 21
93.0641016151
 31
0.0
  0
LINE
  8
0
 62
0
 10
61.2
 20
87.8679491924
 30
0.0
 11
55.2
 21
87.8679491924
 31
0.0
  0
LINE
  8
0
 62
0
 10
80.1
 20
71.5301270189
 30
0.0
 11
82.6
 21
67.2
 31
0.0
  0
LINE
  8
0
 62
0
 10
75.1
 20
71.5301270189
 30
0.0
 11
80.1
 21
71.5301270189
 31
0.0
  0
LINE
  8
0
 62
0
 10
72.6
 20
67.2
 30
0.0
 11
75.1
 21
71.5301270189
 31
0.0
  0
LINE
  8
0
 62
0
 10
75.1
 20
62.8698729811
 30
0.0
 11
72.6
 21
67.2
 31
0.0
  0
LINE
  8
0
 62
0
 10
80.1
 20
62.8698729811
 30
0.0
 11
75.1
 21
62.8698729811
 31
0.0
  0
LINE
  8
0
 62
0
 10
82.6
 20
67.2
 30
0.0
 11
80.1
 21
62.8698729811
 31
0.0
  0
LINE
  8
0
 62
0
 10
45.5
 20
63.3320508076
 30
0.0
 11
51.5
 21
63.3320508076
 31
0.0
  0
LINE
  8
0
 62
0
 10
48.5
 20
58.1358983849
 30
0.0
 11
45.5
 21
63.3320508076
 31
0.0
  0
LINE
  8
0
 62
0
 10
51.5
 20
63.3320508076
 30
0.0
 11
48.5
 21
58.1358983849
 31
0.0
  0
LINE
  8
0
 62
0
 10
84.3
 20
63.3320508076
 30
0.0
 11
90.3
 21
63.3320508076
 31
0.0
  0
LINE
  8
0
 62
0
 10
87.3
 20
58.1358983849
 30
0.0
 11
84.3
 21
63.3320508076
 31
0.0
  0
LINE
  8
0
 62
0
 10
90.3
 20
63.3320508076
 30
0.0
 11
87.3
 21
58.1358983849
 31
0.0
  0
LINE
  8
0
 62
0
 10
29.1
 20
109.864101615
 30
0.0
 11
32.1
 21
104.667949192
 31
0.0
  0
LINE
  8
0
 62
0
 10
26.1
 20
104.667949192
 30
0.0
 11
29.1
 21
109.864101615
 31
0.0
  0
LINE
  8
0
 62
0
 10
32.1
 20
104.667949192
 30
0.0
 11
26.1
 21
104.667949192
 31
0.0
  0
LINE
  8
0
 62
0
 10
90.3
 20
96.9320508076
 30
0.0
 11
87.3
 21
91.7358983849
 31
0.0
  0
LINE
  8
0
 62
0
 10
84.3
 20
96.9320508076
 30
0.0
 11
90.3
 21
96.9320508076
 31
0.0
  0
LINE
  8
0
 62
0
 10
87.3
 20
91.7358983849
 30
0.0
 11
84.3
 21
96.9320508076
 31
0.0
  0
LINE
  8
0
 62
0
 10
104.2
 20
79.6698729811
 30
0.0
 11
101.7
 21
84.0
 31
0.0
  0
LINE
  8
0
 62
0
 10
109.2
 20
79.6698729811
 30
0.0
 11
104.2
 21
79.6698729811
 31
0.0
  0
LINE
  8
0
 62
0
 10
111.7
 20
84.0
 30
0.0
 11
109.2
 21
79.6698729811
 31
0.0
  0
LINE
  8
0
 62
0
 10
109.2
 20
88.3301270189
 30
0.0
 11
111.7
 21
84.0
 31
0.0
  0
LINE
  8
0
 62
0
 10
104.2
 20
88.3301270189
 30
0.0
 11
109.2
 21
88.3301270189
 31
0.0
  0
LINE
  8
0
 62
0
 10
101.7
 20
84.0
 30
0.0
 11
104.2
 21
88.3301270189
 31
0.0
  0
LINE
  8
0
 62
0
 10
106.7
 20
76.2641016151
 30
0.0
 11
109.7
 21
71.0679491924
 31
0.0
  0
LINE
  8
0
 62
0
 10
103.7
 20
71.0679491924
 30
0.0
 11
106.7
 21
76.2641016151
 31
0.0
  0
LINE
  8
0
 62
0
 10
109.7
 20
71.0679491924
 30
0.0
 11
103.7
 21
71.0679491924
 31
0.0
  0
LINE
  8
0
 62
0
 10
97.0
 20
93.0641016151
 30
0.0
 11
100.0
 21
87.8679491924
 31
0.0
  0
LINE
  8
0
 62
0
 10
94.0
 20
87.8679491924
 30
0.0
 11
97.0
 21
93.0641016151
 31
0.0
  0
LINE
  8
0
 62
0
 10
100.0
 20
87.8679491924
 30
0.0
 11
94.0
 21
87.8679491924
 31
0.0
  0
LINE
  8
0
 62
0
 10
100.0
 20
80.1320508076
 30
0.0
 11
97.0
 21
74.9358983849
 31
0.0
  0
LINE
  8
0
 62
0
 10
94.0
 20
80.1320508076
 30
0.0
 11
100.0
 21
80.1320508076
 31
0.0
  0
LINE
  8
0
 62
0
 10
97.0
 20
74.9358983849
 30
0.0
 11
94.0
 21
80.1320508076
 31
0.0
  0
LINE
  8
0
 62
0
 10
97.0
 20
59.4641016151
 30
0.0
 11
100.0
 21
54.2679491924
 31
0.0
  0
LINE
  8
0
 62
0
 10
94.0
 20
54.2679491924
 30
0.0
 11
97.0
 21
59.4641016151
 31
0.0
  0
LINE
  8
0
 62
0
 10
100.0
 20
54.2679491924
 30
0.0
 11
94.0
 21
54.2679491924
 31
0.0
  0
LINE
  8
0
 62
0
 10
104.2
 20
54.7301270189
 30
0.0
 11
109.2
 21
54.7301270189
 31
0.0
  0
LINE
  8
0
 62
0
 10
101.7
 20
50.4
 30
0.0
 11
104.2
 21
54.7301270189
 31
0.0
  0
LINE
  8
0
 62
0
 10
104.2
 20
46.0698729811
 30
0.0
 11
101.7
 21
50.4
 31
0.0
  0
LINE
  8
0
 62
0
 10
109.2
 20
46.0698729811
 30
0.0
 11
104.2
 21
46.0698729811
 31
0.0
  0
LINE
  8
0
 62
0
 10
111.7
 20
50.4
 30
0.0
 11
109.2
 21
46.0698729811
 31
0.0
  0
LINE
  8
0
 62
0
 10
109.2
 20
54.7301270189
 30
0.0
 11
111.7
 21
50.4
 31
0.0
  0
LINE
  8
0
 62
0
 10
65.4
 20
121.930127019
 30
0.0
 11
70.4
 21
121.930127019
 31
0.0
  0
LINE
  8
0
 62
0
 10
62.9
 20
117.6
 30
0.0
 11
65.4
 21
121.930127019
 31
0.0
  0
LINE
  8
0
 62
0
 10
65.4
 20
113.269872981
 30
0.0
 11
62.9
 21
117.6
 31
0.0
  0
LINE
  8
0
 62
0
 10
70.4
 20
113.269872981
 30
0.0
 11
65.4
 21
113.269872981
 31
0.0
  0
LINE
  8
0
 62
0
 10
72.9
 20
117.6
 30
0.0
 11
70.4
 21
113.269872981
 31
0.0
  0
LINE
  8
0
 62
0
 10
70.4
 20
121.930127019
 30
0.0
 11
72.9
 21
117.6
 31
0.0
  0
LINE
  8
0
 62
0
 10
58.2
 20
126.664101615
 30
0.0
 11
61.2
 21
121.467949192
 31
0.0
  0
LINE
  8
0
 62
0
 10
55.2
 20
121.467949192
 30
0.0
 11
58.2
 21
126.664101615
 31
0.0
  0
LINE
  8
0
 62
0
 10
61.2
 20
121.467949192
 30
0.0
 11
55.2
 21
121.467949192
 31
0.0
  0
LINE
  8
0
 62
0
 10
32.1
 20
130.532050808
 30
0.0
 11
29.1
 21
125.335898385
 31
0.0
  0
LINE
  8
0
 62
0
 10
26.1
 20
130.532050808
 30
0.0
 11
32.1
 21
130.532050808
 31
0.0
  0
LINE
  8
0
 62
0
 10
29.1
 20
125.335898385
 30
0.0
 11
26.1
 21
130.532050808
 31
0.0
  0
LINE
  8
0
 62
0
 10
41.8
 20
121.467949192
 30
0.0
 11
35.8
 21
121.467949192
 31
0.0
  0
LINE
  8
0
 62
0
 10
38.8
 20
126.664101615
 30
0.0
 11
41.8
 21
121.467949192
 31
0.0
  0
LINE
  8
0
 62
0
 10
35.8
 20
121.467949192
 30
0.0
 11
38.8
 21
126.664101615
 31
0.0
  0
LINE
  8
0
 62
0
 10
191.0
 20
54.2679491924
 30
0.0
 11
194.0
 21
59.4641016151
 31
0.0
  0
LINE
  8
0
 62
0
 10
197.0
 20
54.2679491924
 30
0.0
 11
191.0
 21
54.2679491924
 31
0.0
  0
LINE
  8
0
 62
0
 10
194.0
 20
59.4641016151
 30
0.0
 11
197.0
 21
54.2679491924
 31
0.0
  0
LINE
  8
0
 62
0
 10
191.0
 20
80.1320508076
 30
0.0
 11
197.0
 21
80.1320508076
 31
0.0
  0
LINE
  8
0
 62
0
 10
194.0
 20
74.9358983849
 30
0.0
 11
191.0
 21
80.1320508076
 31
0.0
  0
LINE
  8
0
 62
0
 10
197.0
 20
80.1320508076
 30
0.0
 11
194.0
 21
74.9358983849
 31
0.0
  0
LINE
  8
0
 62
0
 10
216.4
 20
20.6679491924
 30
0.0
 11
210.4
 21
20.6679491924
 31
0.0
  0
LINE
  8
0
 62
0
 10
213.4
 20
25.8641016151
 30
0.0
 11
216.4
 21
20.6679491924
 31
0.0
  0
LINE
  8
0
 62
0
 10
210.4
 20
20.6679491924
 30
0.0
 11
213.4
 21
25.8641016151
 31
0.0
  0
LINE
  8
0
 62
0
 10
199.0
 20
33.6
 30
0.0
 11
196.5
 21
29.2698729811
 31
0.0
  0
LINE
  8
0
 62
0
 10
196.5
 20
37.9301270189
 30
0.0
 11
199.0
 21
33.6
 31
0.0
  0
LINE
  8
0
 62
0
 10
191.5
 20
37.9301270189
 30
0.0
 11
196.5
 21
37.9301270189
 31
0.0
  0
LINE
  8
0
 62
0
 10
189.0
 20
33.6
 30
0.0
 11
191.5
 21
37.9301270189
 31
0.0
  0
LINE
  8
0
 62
0
 10
191.5
 20
29.2698729811
 30
0.0
 11
189.0
 21
33.6
 31
0.0
  0
LINE
  8
0
 62
0
 10
196.5
 20
29.2698729811
 30
0.0
 11
191.5
 21
29.2698729811
 31
0.0
  0
LINE
  8
0
 62
0
 10
216.4
 20
46.5320508076
 30
0.0
 11
213.4
 21
41.3358983849
 31
0.0
  0
LINE
  8
0
 62
0
 10
210.4
 20
46.5320508076
 30
0.0
 11
216.4
 21
46.5320508076
 31
0.0
  0
LINE
  8
0
 62
0
 10
213.4
 20
41.3358983849
 30
0.0
 11
210.4
 21
46.5320508076
 31
0.0
  0
LINE
  8
0
 62
0
 10
206.2
 20
88.3301270189
 30
0.0
 11
208.7
 21
84.0
 31
0.0
  0
LINE
  8
0
 62
0
 10
201.2
 20
88.3301270189
 30
0.0
 11
206.2
 21
88.3301270189
 31
0.0
  0
LINE
  8
0
 62
0
 10
198.7
 20
84.0
 30
0.0
 11
201.2
 21
88.3301270189
 31
0.0
  0
LINE
  8
0
 62
0
 10
201.2
 20
79.6698729811
 30
0.0
 11
198.7
 21
84.0
 31
0.0
  0
LINE
  8
0
 62
0
 10
206.2
 20
79.6698729811
 30
0.0
 11
201.2
 21
79.6698729811
 31
0.0
  0
LINE
  8
0
 62
0
 10
208.7
 20
84.0
 30
0.0
 11
206.2
 21
79.6698729811
 31
0.0
  0
LINE
  8
0
 62
0
 10
206.7
 20
71.0679491924
 30
0.0
 11
200.7
 21
71.0679491924
 31
0.0
  0
LINE
  8
0
 62
0
 10
203.7
 20
76.2641016151
 30
0.0
 11
206.7
 21
71.0679491924
 31
0.0
  0
LINE
  8
0
 62
0
 10
200.7
 20
71.0679491924
 30
0.0
 11
203.7
 21
76.2641016151
 31
0.0
  0
LINE
  8
0
 62
0
 10
216.4
 20
87.8679491924
 30
0.0
 11
210.4
 21
87.8679491924
 31
0.0
  0
LINE
  8
0
 62
0
 10
213.4
 20
93.0641016151
 30
0.0
 11
216.4
 21
87.8679491924
 31
0.0
  0
LINE
  8
0
 62
0
 10
210.4
 20
87.8679491924
 30
0.0
 11
213.4
 21
93.0641016151
 31
0.0
  0
LINE
  8
0
 62
0
 10
213.4
 20
59.4641016151
 30
0.0
 11
216.4
 21
54.2679491924
 31
0.0
  0
LINE
  8
0
 62
0
 10
210.4
 20
54.2679491924
 30
0.0
 11
213.4
 21
59.4641016151
 31
0.0
  0
LINE
  8
0
 62
0
 10
216.4
 20
54.2679491924
 30
0.0
 11
210.4
 21
54.2679491924
 31
0.0
  0
LINE
  8
0
 62
0
 10
213.4
 20
7.73589838486
 30
0.0
 11
210.4
 21
12.9320508076
 31
0.0
  0
LINE
  8
0
 62
0
 10
216.4
 20
12.9320508076
 30
0.0
 11
213.4
 21
7.73589838486
 31
0.0
  0
LINE
  8
0
 62
0
 10
210.4
 20
12.9320508076
 30
0.0
 11
216.4
 21
12.9320508076
 31
0.0
  0
LINE
  8
0
 62
0
 10
206.7
 20
104.667949192
 30
0.0
 11
200.7
 21
104.667949192
 31
0.0
  0
LINE
  8
0
 62
0
 10
203.7
 20
109.864101615
 30
0.0
 11
206.7
 21
104.667949192
 31
0.0
  0
LINE
  8
0
 62
0
 10
200.7
 20
104.667949192
 30
0.0
 11
203.7
 21
109.864101615
 31
0.0
  0
LINE
  8
0
 62
0
 10
223.1
 20
91.7358983849
 30
0.0
 11
220.1
 21
96.9320508076
 31
0.0
  0
LINE
  8
0
 62
0
 10
226.1
 20
96.9320508076
 30
0.0
 11
223.1
 21
91.7358983849
 31
0.0
  0
LINE
  8
0
 62
0
 10
220.1
 20
96.9320508076
 30
0.0
 11
226.1
 21
96.9320508076
 31
0.0
  0
LINE
  8
0
 62
0
 10
16.4
 20
46.5320508076
 30
0.0
 11
22.4
 21
46.5320508076
 31
0.0
  0
LINE
  8
0
 62
0
 10
19.4
 20
41.3358983849
 30
0.0
 11
16.4
 21
46.5320508076
 31
0.0
  0
LINE
  8
0
 62
0
 10
22.4
 20
46.5320508076
 30
0.0
 11
19.4
 21
41.3358983849
 31
0.0
  0
LINE
  8
0
 62
0
 10
16.4
 20
80.1320508076
 30
0.0
 11
22.4
 21
80.1320508076
 31
0.0
  0
LINE
  8
0
 62
0
 10
19.4
 20
74.9358983849
 30
0.0
 11
16.4
 21
80.1320508076
 31
0.0
  0
LINE
  8
0
 62
0
 10
22.4
 20
80.1320508076
 30
0.0
 11
19.4
 21
74.9358983849
 31
0.0
  0
LINE
  8
0
 62
0
 10
19.4
 20
7.73589838486
 30
0.0
 11
16.4
 21
12.9320508076
 31
0.0
  0
LINE
  8
0
 62
0
 10
22.4
 20
12.9320508076
 30
0.0
 11
19.4
 21
7.73589838486
 31
0.0
  0
LINE
  8
0
 62
0
 10
16.4
 20
12.9320508076
 30
0.0
 11
22.4
 21
12.9320508076
 31
0.0
  0
LINE
  8
0
 62
0
 10
22.4
 20
20.6679491924
 30
0.0
 11
16.4
 21
20.6679491924
 31
0.0
  0
LINE
  8
0
 62
0
 10
19.4
 20
25.8641016151
 30
0.0
 11
22.4
 21
20.6679491924
 31
0.0
  0
LINE
  8
0
 62
0
 10
16.4
 20
20.6679491924
 30
0.0
 11
19.4
 21
25.8641016151
 31
0.0
  0
LINE
  8
0
 62
0
 10
22.4
 20
113.732050808
 30
0.0
 11
19.4
 21
108.535898385
 31
0.0
  0
LINE
  8
0
 62
0
 10
16.4
 20
113.732050808
 30
0.0
 11
22.4
 21
113.732050808
 31
0.0
  0
LINE
  8
0
 62
0
 10
19.4
 20
108.535898385
 30
0.0
 11
16.4
 21
113.732050808
 31
0.0
  0
LINE
  8
0
 62
0
 10
7.2
 20
12.4698729811
 30
0.0
 11
4.7
 21
16.8
 31
0.0
  0
LINE
  8
0
 62
0
 10
12.2
 20
12.4698729811
 30
0.0
 11
7.2
 21
12.4698729811
 31
0.0
  0
LINE
  8
0
 62
0
 10
14.7
 20
16.8
 30
0.0
 11
12.2
 21
12.4698729811
 31
0.0
  0
LINE
  8
0
 62
0
 10
12.2
 20
21.1301270189
 30
0.0
 11
14.7
 21
16.8
 31
0.0
  0
LINE
  8
0
 62
0
 10
7.2
 20
21.1301270189
 30
0.0
 11
12.2
 21
21.1301270189
 31
0.0
  0
LINE
  8
0
 62
0
 10
4.7
 20
16.8
 30
0.0
 11
7.2
 21
21.1301270189
 31
0.0
  0
LINE
  8
0
 62
0
 10
9.7
 20
9.06410161514
 30
0.0
 11
12.7
 21
3.86794919243
 31
0.0
  0
LINE
  8
0
 62
0
 10
6.7
 20
3.86794919243
 30
0.0
 11
9.7
 21
9.06410161514
 31
0.0
  0
LINE
  8
0
 62
0
 10
12.7
 20
3.86794919243
 30
0.0
 11
6.7
 21
3.86794919243
 31
0.0
  0
LINE
  8
0
 62
0
 10
12.7
 20
29.7320508076
 30
0.0
 11
9.7
 21
24.5358983849
 31
0.0
  0
LINE
  8
0
 62
0
 10
6.7
 20
29.7320508076
 30
0.0
 11
12.7
 21
29.7320508076
 31
0.0
  0
LINE
  8
0
 62
0
 10
9.7
 20
24.5358983849
 30
0.0
 11
6.7
 21
29.7320508076
 31
0.0
  0
LINE
  8
0
 62
0
 10
16.9
 20
37.9301270189
 30
0.0
 11
21.9
 21
37.9301270189
 31
0.0
  0
LINE
  8
0
 62
0
 10
14.4
 20
33.6
 30
0.0
 11
16.9
 21
37.9301270189
 31
0.0
  0
LINE
  8
0
 62
0
 10
16.9
 20
29.2698729811
 30
0.0
 11
14.4
 21
33.6
 31
0.0
  0
LINE
  8
0
 62
0
 10
21.9
 20
29.2698729811
 30
0.0
 11
16.9
 21
29.2698729811
 31
0.0
  0
LINE
  8
0
 62
0
 10
24.4
 20
33.6
 30
0.0
 11
21.9
 21
29.2698729811
 31
0.0
  0
LINE
  8
0
 62
0
 10
21.9
 20
37.9301270189
 30
0.0
 11
24.4
 21
33.6
 31
0.0
  0
LINE
  8
0
 62
0
 10
12.7
 20
37.4679491924
 30
0.0
 11
6.7
 21
37.4679491924
 31
0.0
  0
LINE
  8
0
 62
0
 10
9.7
 20
42.6641016151
 30
0.0
 11
12.7
 21
37.4679491924
 31
0.0
  0
LINE
  8
0
 62
0
 10
6.7
 20
37.4679491924
 30
0.0
 11
9.7
 21
42.6641016151
 31
0.0
  0
LINE
  8
0
 62
0
 10
6.7
 20
63.3320508076
 30
0.0
 11
12.7
 21
63.3320508076
 31
0.0
  0
LINE
  8
0
 62
0
 10
9.7
 20
58.1358983849
 30
0.0
 11
6.7
 21
63.3320508076
 31
0.0
  0
LINE
  8
0
 62
0
 10
12.7
 20
63.3320508076
 30
0.0
 11
9.7
 21
58.1358983849
 31
0.0
  0
LINE
  8
0
 62
0
 10
22.4
 20
54.2679491924
 30
0.0
 11
16.4
 21
54.2679491924
 31
0.0
  0
LINE
  8
0
 62
0
 10
19.4
 20
59.4641016151
 30
0.0
 11
22.4
 21
54.2679491924
 31
0.0
  0
LINE
  8
0
 62
0
 10
16.4
 20
54.2679491924
 30
0.0
 11
19.4
 21
59.4641016151
 31
0.0
  0
LINE
  8
0
 62
0
 10
21.9
 20
62.8698729811
 30
0.0
 11
16.9
 21
62.8698729811
 31
0.0
  0
LINE
  8
0
 62
0
 10
24.4
 20
67.2
 30
0.0
 11
21.9
 21
62.8698729811
 31
0.0
  0
LINE
  8
0
 62
0
 10
21.9
 20
71.5301270189
 30
0.0
 11
24.4
 21
67.2
 31
0.0
  0
LINE
  8
0
 62
0
 10
16.9
 20
71.5301270189
 30
0.0
 11
21.9
 21
71.5301270189
 31
0.0
  0
LINE
  8
0
 62
0
 10
14.4
 20
67.2
 30
0.0
 11
16.9
 21
71.5301270189
 31
0.0
  0
LINE
  8
0
 62
0
 10
16.9
 20
62.8698729811
 30
0.0
 11
14.4
 21
67.2
 31
0.0
  0
LINE
  8
0
 62
0
 10
12.7
 20
71.0679491924
 30
0.0
 11
6.7
 21
71.0679491924
 31
0.0
  0
LINE
  8
0
 62
0
 10
9.7
 20
76.2641016151
 30
0.0
 11
12.7
 21
71.0679491924
 31
0.0
  0
LINE
  8
0
 62
0
 10
6.7
 20
71.0679491924
 30
0.0
 11
9.7
 21
76.2641016151
 31
0.0
  0
LINE
  8
0
 62
0
 10
12.2
 20
54.7301270189
 30
0.0
 11
14.7
 21
50.4
 31
0.0
  0
LINE
  8
0
 62
0
 10
7.2
 20
54.7301270189
 30
0.0
 11
12.2
 21
54.7301270189
 31
0.0
  0
LINE
  8
0
 62
0
 10
4.7
 20
50.4
 30
0.0
 11
7.2
 21
54.7301270189
 31
0.0
  0
LINE
  8
0
 62
0
 10
7.2
 20
46.0698729811
 30
0.0
 11
4.7
 21
50.4
 31
0.0
  0
LINE
  8
0
 62
0
 10
12.2
 20
46.0698729811
 30
0.0
 11
7.2
 21
46.0698729811
 31
0.0
  0
LINE
  8
0
 62
0
 10
14.7
 20
50.4
 30
0.0
 11
12.2
 21
46.0698729811
 31
0.0
  0
LINE
  8
0
 62
0
 10
9.7
 20
91.7358983849
 30
0.0
 11
6.7
 21
96.9320508076
 31
0.0
  0
LINE
  8
0
 62
0
 10
12.7
 20
96.9320508076
 30
0.0
 11
9.7
 21
91.7358983849
 31
0.0
  0
LINE
  8
0
 62
0
 10
6.7
 20
96.9320508076
 30
0.0
 11
12.7
 21
96.9320508076
 31
0.0
  0
LINE
  8
0
 62
0
 10
16.9
 20
96.4698729811
 30
0.0
 11
14.4
 21
100.8
 31
0.0
  0
LINE
  8
0
 62
0
 10
21.9
 20
96.4698729811
 30
0.0
 11
16.9
 21
96.4698729811
 31
0.0
  0
LINE
  8
0
 62
0
 10
24.4
 20
100.8
 30
0.0
 11
21.9
 21
96.4698729811
 31
0.0
  0
LINE
  8
0
 62
0
 10
21.9
 20
105.130127019
 30
0.0
 11
24.4
 21
100.8
 31
0.0
  0
LINE
  8
0
 62
0
 10
16.9
 20
105.130127019
 30
0.0
 11
21.9
 21
105.130127019
 31
0.0
  0
LINE
  8
0
 62
0
 10
14.4
 20
100.8
 30
0.0
 11
16.9
 21
105.130127019
 31
0.0
  0
LINE
  8
0
 62
0
 10
12.2
 20
79.6698729811
 30
0.0
 11
7.2
 21
79.6698729811
 31
0.0
  0
LINE
  8
0
 62
0
 10
14.7
 20
84.0
 30
0.0
 11
12.2
 21
79.6698729811
 31
0.0
  0
LINE
  8
0
 62
0
 10
12.2
 20
88.3301270189
 30
0.0
 11
14.7
 21
84.0
 31
0.0
  0
LINE
  8
0
 62
0
 10
7.2
 20
88.3301270189
 30
0.0
 11
12.2
 21
88.3301270189
 31
0.0
  0
LINE
  8
0
 62
0
 10
4.7
 20
84.0
 30
0.0
 11
7.2
 21
88.3301270189
 31
0.0
  0
LINE
  8
0
 62
0
 10
7.2
 20
79.6698729811
 30
0.0
 11
4.7
 21
84.0
 31
0.0
  0
LINE
  8
0
 62
0
 10
19.4
 20
93.0641016151
 30
0.0
 11
22.4
 21
87.8679491924
 31
0.0
  0
LINE
  8
0
 62
0
 10
16.4
 20
87.8679491924
 30
0.0
 11
19.4
 21
93.0641016151
 31
0.0
  0
LINE
  8
0
 62
0
 10
22.4
 20
87.8679491924
 30
0.0
 11
16.4
 21
87.8679491924
 31
0.0
  0
LINE
  8
0
 62
0
 10
9.7
 20
109.864101615
 30
0.0
 11
12.7
 21
104.667949192
 31
0.0
  0
LINE
  8
0
 62
0
 10
6.7
 20
104.667949192
 30
0.0
 11
9.7
 21
109.864101615
 31
0.0
  0
LINE
  8
0
 62
0
 10
12.7
 20
104.667949192
 30
0.0
 11
6.7
 21
104.667949192
 31
0.0
  0
LINE
  8
0
 62
0
 10
80.1
 20
230.869872981
 30
0.0
 11
75.1
 21
230.869872981
 31
0.0
  0
LINE
  8
0
 62
0
 10
82.6
 20
235.2
 30
0.0
 11
80.1
 21
230.869872981
 31
0.0
  0
LINE
  8
0
 62
0
 10
80.1
 20
239.530127019
 30
0.0
 11
82.6
 21
235.2
 31
0.0
  0
LINE
  8
0
 62
0
 10
75.1
 20
239.530127019
 30
0.0
 11
80.1
 21
239.530127019
 31
0.0
  0
LINE
  8
0
 62
0
 10
72.6
 20
235.2
 30
0.0
 11
75.1
 21
239.530127019
 31
0.0
  0
LINE
  8
0
 62
0
 10
75.1
 20
230.869872981
 30
0.0
 11
72.6
 21
235.2
 31
0.0
  0
LINE
  8
0
 62
0
 10
90.3
 20
239.067949192
 30
0.0
 11
84.3
 21
239.067949192
 31
0.0
  0
LINE
  8
0
 62
0
 10
87.3
 20
244.264101615
 30
0.0
 11
90.3
 21
239.067949192
 31
0.0
  0
LINE
  8
0
 62
0
 10
84.3
 20
239.067949192
 30
0.0
 11
87.3
 21
244.264101615
 31
0.0
  0
LINE
  8
0
 62
0
 10
123.1
 20
239.067949192
 30
0.0
 11
126.1
 21
244.264101615
 31
0.0
  0
LINE
  8
0
 62
0
 10
129.1
 20
239.067949192
 30
0.0
 11
123.1
 21
239.067949192
 31
0.0
  0
LINE
  8
0
 62
0
 10
126.1
 20
244.264101615
 30
0.0
 11
129.1
 21
239.067949192
 31
0.0
  0
LINE
  8
0
 62
0
 10
148.5
 20
239.067949192
 30
0.0
 11
142.5
 21
239.067949192
 31
0.0
  0
LINE
  8
0
 62
0
 10
145.5
 20
244.264101615
 30
0.0
 11
148.5
 21
239.067949192
 31
0.0
  0
LINE
  8
0
 62
0
 10
142.5
 20
239.067949192
 30
0.0
 11
145.5
 21
244.264101615
 31
0.0
  0
LINE
  8
0
 62
0
 10
148.0
 20
214.069872981
 30
0.0
 11
143.0
 21
214.069872981
 31
0.0
  0
LINE
  8
0
 62
0
 10
150.5
 20
218.4
 30
0.0
 11
148.0
 21
214.069872981
 31
0.0
  0
LINE
  8
0
 62
0
 10
148.0
 20
222.730127019
 30
0.0
 11
150.5
 21
218.4
 31
0.0
  0
LINE
  8
0
 62
0
 10
143.0
 20
222.730127019
 30
0.0
 11
148.0
 21
222.730127019
 31
0.0
  0
LINE
  8
0
 62
0
 10
140.5
 20
218.4
 30
0.0
 11
143.0
 21
222.730127019
 31
0.0
  0
LINE
  8
0
 62
0
 10
143.0
 20
214.069872981
 30
0.0
 11
140.5
 21
218.4
 31
0.0
  0
LINE
  8
0
 62
0
 10
100.0
 20
222.267949192
 30
0.0
 11
94.0
 21
222.267949192
 31
0.0
  0
LINE
  8
0
 62
0
 10
97.0
 20
227.464101615
 30
0.0
 11
100.0
 21
222.267949192
 31
0.0
  0
LINE
  8
0
 62
0
 10
94.0
 20
222.267949192
 30
0.0
 11
97.0
 21
227.464101615
 31
0.0
  0
LINE
  8
0
 62
0
 10
113.4
 20
222.267949192
 30
0.0
 11
116.4
 21
227.464101615
 31
0.0
  0
LINE
  8
0
 62
0
 10
119.4
 20
222.267949192
 30
0.0
 11
113.4
 21
222.267949192
 31
0.0
  0
LINE
  8
0
 62
0
 10
116.4
 20
227.464101615
 30
0.0
 11
119.4
 21
222.267949192
 31
0.0
  0
LINE
  8
0
 62
0
 10
65.4
 20
214.069872981
 30
0.0
 11
62.9
 21
218.4
 31
0.0
  0
LINE
  8
0
 62
0
 10
70.4
 20
214.069872981
 30
0.0
 11
65.4
 21
214.069872981
 31
0.0
  0
LINE
  8
0
 62
0
 10
72.9
 20
218.4
 30
0.0
 11
70.4
 21
214.069872981
 31
0.0
  0
LINE
  8
0
 62
0
 10
70.4
 20
222.730127019
 30
0.0
 11
72.9
 21
218.4
 31
0.0
  0
LINE
  8
0
 62
0
 10
65.4
 20
222.730127019
 30
0.0
 11
70.4
 21
222.730127019
 31
0.0
  0
LINE
  8
0
 62
0
 10
62.9
 20
218.4
 30
0.0
 11
65.4
 21
222.730127019
 31
0.0
  0
LINE
  8
0
 62
0
 10
226.1
 20
231.332050808
 30
0.0
 11
223.1
 21
226.135898385
 31
0.0
  0
LINE
  8
0
 62
0
 10
220.1
 20
231.332050808
 30
0.0
 11
226.1
 21
231.332050808
 31
0.0
  0
LINE
  8
0
 62
0
 10
223.1
 20
226.135898385
 30
0.0
 11
220.1
 21
231.332050808
 31
0.0
  0
LINE
  8
0
 62
0
 10
162.4
 20
214.069872981
 30
0.0
 11
159.9
 21
218.4
 31
0.0
  0
LINE
  8
0
 62
0
 10
167.4
 20
214.069872981
 30
0.0
 11
162.4
 21
214.069872981
 31
0.0
  0
LINE
  8
0
 62
0
 10
169.9
 20
218.4
 30
0.0
 11
167.4
 21
214.069872981
 31
0.0
  0
LINE
  8
0
 62
0
 10
167.4
 20
222.730127019
 30
0.0
 11
169.9
 21
218.4
 31
0.0
  0
LINE
  8
0
 62
0
 10
162.4
 20
222.730127019
 30
0.0
 11
167.4
 21
222.730127019
 31
0.0
  0
LINE
  8
0
 62
0
 10
159.9
 20
218.4
 30
0.0
 11
162.4
 21
222.730127019
 31
0.0
  0
LINE
  8
0
 62
0
 10
158.2
 20
214.532050808
 30
0.0
 11
155.2
 21
209.335898385
 31
0.0
  0
LINE
  8
0
 62
0
 10
152.2
 20
214.532050808
 30
0.0
 11
158.2
 21
214.532050808
 31
0.0
  0
LINE
  8
0
 62
0
 10
155.2
 20
209.335898385
 30
0.0
 11
152.2
 21
214.532050808
 31
0.0
  0
LINE
  8
0
 62
0
 10
148.5
 20
205.467949192
 30
0.0
 11
142.5
 21
205.467949192
 31
0.0
  0
LINE
  8
0
 62
0
 10
145.5
 20
210.664101615
 30
0.0
 11
148.5
 21
205.467949192
 31
0.0
  0
LINE
  8
0
 62
0
 10
142.5
 20
205.467949192
 30
0.0
 11
145.5
 21
210.664101615
 31
0.0
  0
LINE
  8
0
 62
0
 10
158.2
 20
255.867949192
 30
0.0
 11
152.2
 21
255.867949192
 31
0.0
  0
LINE
  8
0
 62
0
 10
155.2
 20
261.064101615
 30
0.0
 11
158.2
 21
255.867949192
 31
0.0
  0
LINE
  8
0
 62
0
 10
152.2
 20
255.867949192
 30
0.0
 11
155.2
 21
261.064101615
 31
0.0
  0
LINE
  8
0
 62
0
 10
167.9
 20
264.932050808
 30
0.0
 11
164.9
 21
259.735898385
 31
0.0
  0
LINE
  8
0
 62
0
 10
161.9
 20
264.932050808
 30
0.0
 11
167.9
 21
264.932050808
 31
0.0
  0
LINE
  8
0
 62
0
 10
164.9
 20
259.735898385
 30
0.0
 11
161.9
 21
264.932050808
 31
0.0
  0
LINE
  8
0
 62
0
 10
162.4
 20
256.330127019
 30
0.0
 11
167.4
 21
256.330127019
 31
0.0
  0
LINE
  8
0
 62
0
 10
159.9
 20
252.0
 30
0.0
 11
162.4
 21
256.330127019
 31
0.0
  0
LINE
  8
0
 62
0
 10
162.4
 20
247.669872981
 30
0.0
 11
159.9
 21
252.0
 31
0.0
  0
LINE
  8
0
 62
0
 10
167.4
 20
247.669872981
 30
0.0
 11
162.4
 21
247.669872981
 31
0.0
  0
LINE
  8
0
 62
0
 10
169.9
 20
252.0
 30
0.0
 11
167.4
 21
247.669872981
 31
0.0
  0
LINE
  8
0
 62
0
 10
167.4
 20
256.330127019
 30
0.0
 11
169.9
 21
252.0
 31
0.0
  0
LINE
  8
0
 62
0
 10
132.8
 20
255.867949192
 30
0.0
 11
135.8
 21
261.064101615
 31
0.0
  0
LINE
  8
0
 62
0
 10
138.8
 20
255.867949192
 30
0.0
 11
132.8
 21
255.867949192
 31
0.0
  0
LINE
  8
0
 62
0
 10
135.8
 20
261.064101615
 30
0.0
 11
138.8
 21
255.867949192
 31
0.0
  0
LINE
  8
0
 62
0
 10
148.5
 20
264.932050808
 30
0.0
 11
145.5
 21
259.735898385
 31
0.0
  0
LINE
  8
0
 62
0
 10
142.5
 20
264.932050808
 30
0.0
 11
148.5
 21
264.932050808
 31
0.0
  0
LINE
  8
0
 62
0
 10
145.5
 20
259.735898385
 30
0.0
 11
142.5
 21
264.932050808
 31
0.0
  0
LINE
  8
0
 62
0
 10
70.9
 20
264.932050808
 30
0.0
 11
67.9
 21
259.735898385
 31
0.0
  0
LINE
  8
0
 62
0
 10
64.9
 20
264.932050808
 30
0.0
 11
70.9
 21
264.932050808
 31
0.0
  0
LINE
  8
0
 62
0
 10
67.9
 20
259.735898385
 30
0.0
 11
64.9
 21
264.932050808
 31
0.0
  0
LINE
  8
0
 62
0
 10
77.6
 20
261.064101615
 30
0.0
 11
80.6
 21
255.867949192
 31
0.0
  0
LINE
  8
0
 62
0
 10
74.6
 20
255.867949192
 30
0.0
 11
77.6
 21
261.064101615
 31
0.0
  0
LINE
  8
0
 62
0
 10
80.6
 20
255.867949192
 30
0.0
 11
74.6
 21
255.867949192
 31
0.0
  0
LINE
  8
0
 62
0
 10
80.6
 20
248.132050808
 30
0.0
 11
77.6
 21
242.935898385
 31
0.0
  0
LINE
  8
0
 62
0
 10
74.6
 20
248.132050808
 30
0.0
 11
80.6
 21
248.132050808
 31
0.0
  0
LINE
  8
0
 62
0
 10
77.6
 20
242.935898385
 30
0.0
 11
74.6
 21
248.132050808
 31
0.0
  0
LINE
  8
0
 62
0
 10
116.4
 20
242.935898385
 30
0.0
 11
113.4
 21
248.132050808
 31
0.0
  0
LINE
  8
0
 62
0
 10
119.4
 20
248.132050808
 30
0.0
 11
116.4
 21
242.935898385
 31
0.0
  0
LINE
  8
0
 62
0
 10
113.4
 20
248.132050808
 30
0.0
 11
119.4
 21
248.132050808
 31
0.0
  0
LINE
  8
0
 62
0
 10
113.4
 20
255.867949192
 30
0.0
 11
116.4
 21
261.064101615
 31
0.0
  0
LINE
  8
0
 62
0
 10
119.4
 20
255.867949192
 30
0.0
 11
113.4
 21
255.867949192
 31
0.0
  0
LINE
  8
0
 62
0
 10
116.4
 20
261.064101615
 30
0.0
 11
119.4
 21
255.867949192
 31
0.0
  0
LINE
  8
0
 62
0
 10
109.7
 20
264.932050808
 30
0.0
 11
106.7
 21
259.735898385
 31
0.0
  0
LINE
  8
0
 62
0
 10
103.7
 20
264.932050808
 30
0.0
 11
109.7
 21
264.932050808
 31
0.0
  0
LINE
  8
0
 62
0
 10
106.7
 20
259.735898385
 30
0.0
 11
103.7
 21
264.932050808
 31
0.0
  0
LINE
  8
0
 62
0
 10
181.8
 20
256.330127019
 30
0.0
 11
186.8
 21
256.330127019
 31
0.0
  0
LINE
  8
0
 62
0
 10
179.3
 20
252.0
 30
0.0
 11
181.8
 21
256.330127019
 31
0.0
  0
LINE
  8
0
 62
0
 10
181.8
 20
247.669872981
 30
0.0
 11
179.3
 21
252.0
 31
0.0
  0
LINE
  8
0
 62
0
 10
186.8
 20
247.669872981
 30
0.0
 11
181.8
 21
247.669872981
 31
0.0
  0
LINE
  8
0
 62
0
 10
189.3
 20
252.0
 30
0.0
 11
186.8
 21
247.669872981
 31
0.0
  0
LINE
  8
0
 62
0
 10
186.8
 20
256.330127019
 30
0.0
 11
189.3
 21
252.0
 31
0.0
  0
LINE
  8
0
 62
0
 10
187.3
 20
239.067949192
 30
0.0
 11
181.3
 21
239.067949192
 31
0.0
  0
LINE
  8
0
 62
0
 10
184.3
 20
244.264101615
 30
0.0
 11
187.3
 21
239.067949192
 31
0.0
  0
LINE
  8
0
 62
0
 10
181.3
 20
239.067949192
 30
0.0
 11
184.3
 21
244.264101615
 31
0.0
  0
LINE
  8
0
 62
0
 10
187.3
 20
264.932050808
 30
0.0
 11
184.3
 21
259.735898385
 31
0.0
  0
LINE
  8
0
 62
0
 10
181.3
 20
264.932050808
 30
0.0
 11
187.3
 21
264.932050808
 31
0.0
  0
LINE
  8
0
 62
0
 10
184.3
 20
259.735898385
 30
0.0
 11
181.3
 21
264.932050808
 31
0.0
  0
LINE
  8
0
 62
0
 10
225.6
 20
247.669872981
 30
0.0
 11
220.6
 21
247.669872981
 31
0.0
  0
LINE
  8
0
 62
0
 10
228.1
 20
252.0
 30
0.0
 11
225.6
 21
247.669872981
 31
0.0
  0
LINE
  8
0
 62
0
 10
225.6
 20
256.330127019
 30
0.0
 11
228.1
 21
252.0
 31
0.0
  0
LINE
  8
0
 62
0
 10
220.6
 20
256.330127019
 30
0.0
 11
225.6
 21
256.330127019
 31
0.0
  0
LINE
  8
0
 62
0
 10
218.1
 20
252.0
 30
0.0
 11
220.6
 21
256.330127019
 31
0.0
  0
LINE
  8
0
 62
0
 10
220.6
 20
247.669872981
 30
0.0
 11
218.1
 21
252.0
 31
0.0
  0
LINE
  8
0
 62
0
 10
197.0
 20
255.867949192
 30
0.0
 11
191.0
 21
255.867949192
 31
0.0
  0
LINE
  8
0
 62
0
 10
194.0
 20
261.064101615
 30
0.0
 11
197.0
 21
255.867949192
 31
0.0
  0
LINE
  8
0
 62
0
 10
191.0
 20
255.867949192
 30
0.0
 11
194.0
 21
261.064101615
 31
0.0
  0
LINE
  8
0
 62
0
 10
51.0
 20
256.330127019
 30
0.0
 11
53.5
 21
252.0
 31
0.0
  0
LINE
  8
0
 62
0
 10
46.0
 20
256.330127019
 30
0.0
 11
51.0
 21
256.330127019
 31
0.0
  0
LINE
  8
0
 62
0
 10
43.5
 20
252.0
 30
0.0
 11
46.0
 21
256.330127019
 31
0.0
  0
LINE
  8
0
 62
0
 10
46.0
 20
247.669872981
 30
0.0
 11
43.5
 21
252.0
 31
0.0
  0
LINE
  8
0
 62
0
 10
51.0
 20
247.669872981
 30
0.0
 11
46.0
 21
247.669872981
 31
0.0
  0
LINE
  8
0
 62
0
 10
53.5
 20
252.0
 30
0.0
 11
51.0
 21
247.669872981
 31
0.0
  0
LINE
  8
0
 62
0
 10
48.5
 20
244.264101615
 30
0.0
 11
51.5
 21
239.067949192
 31
0.0
  0
LINE
  8
0
 62
0
 10
45.5
 20
239.067949192
 30
0.0
 11
48.5
 21
244.264101615
 31
0.0
  0
LINE
  8
0
 62
0
 10
51.5
 20
239.067949192
 30
0.0
 11
45.5
 21
239.067949192
 31
0.0
  0
LINE
  8
0
 62
0
 10
55.2
 20
248.132050808
 30
0.0
 11
61.2
 21
248.132050808
 31
0.0
  0
LINE
  8
0
 62
0
 10
58.2
 20
242.935898385
 30
0.0
 11
55.2
 21
248.132050808
 31
0.0
  0
LINE
  8
0
 62
0
 10
61.2
 20
248.132050808
 30
0.0
 11
58.2
 21
242.935898385
 31
0.0
  0
LINE
  8
0
 62
0
 10
67.9
 20
244.264101615
 30
0.0
 11
70.9
 21
239.067949192
 31
0.0
  0
LINE
  8
0
 62
0
 10
64.9
 20
239.067949192
 30
0.0
 11
67.9
 21
244.264101615
 31
0.0
  0
LINE
  8
0
 62
0
 10
70.9
 20
239.067949192
 30
0.0
 11
64.9
 21
239.067949192
 31
0.0
  0
LINE
  8
0
 62
0
 10
48.5
 20
226.135898385
 30
0.0
 11
45.5
 21
231.332050808
 31
0.0
  0
LINE
  8
0
 62
0
 10
51.5
 20
231.332050808
 30
0.0
 11
48.5
 21
226.135898385
 31
0.0
  0
LINE
  8
0
 62
0
 10
45.5
 20
231.332050808
 30
0.0
 11
51.5
 21
231.332050808
 31
0.0
  0
LINE
  8
0
 62
0
 10
58.2
 20
227.464101615
 30
0.0
 11
61.2
 21
222.267949192
 31
0.0
  0
LINE
  8
0
 62
0
 10
55.2
 20
222.267949192
 30
0.0
 11
58.2
 21
227.464101615
 31
0.0
  0
LINE
  8
0
 62
0
 10
61.2
 20
222.267949192
 30
0.0
 11
55.2
 21
222.267949192
 31
0.0
  0
LINE
  8
0
 62
0
 10
55.7
 20
239.530127019
 30
0.0
 11
60.7
 21
239.530127019
 31
0.0
  0
LINE
  8
0
 62
0
 10
53.2
 20
235.2
 30
0.0
 11
55.7
 21
239.530127019
 31
0.0
  0
LINE
  8
0
 62
0
 10
55.7
 20
230.869872981
 30
0.0
 11
53.2
 21
235.2
 31
0.0
  0
LINE
  8
0
 62
0
 10
60.7
 20
230.869872981
 30
0.0
 11
55.7
 21
230.869872981
 31
0.0
  0
LINE
  8
0
 62
0
 10
63.2
 20
235.2
 30
0.0
 11
60.7
 21
230.869872981
 31
0.0
  0
LINE
  8
0
 62
0
 10
60.7
 20
239.530127019
 30
0.0
 11
63.2
 21
235.2
 31
0.0
  0
LINE
  8
0
 62
0
 10
64.9
 20
231.332050808
 30
0.0
 11
70.9
 21
231.332050808
 31
0.0
  0
LINE
  8
0
 62
0
 10
67.9
 20
226.135898385
 30
0.0
 11
64.9
 21
231.332050808
 31
0.0
  0
LINE
  8
0
 62
0
 10
70.9
 20
231.332050808
 30
0.0
 11
67.9
 21
226.135898385
 31
0.0
  0
LINE
  8
0
 62
0
 10
92.3
 20
252.0
 30
0.0
 11
89.8
 21
247.669872981
 31
0.0
  0
LINE
  8
0
 62
0
 10
89.8
 20
256.330127019
 30
0.0
 11
92.3
 21
252.0
 31
0.0
  0
LINE
  8
0
 62
0
 10
84.8
 20
256.330127019
 30
0.0
 11
89.8
 21
256.330127019
 31
0.0
  0
LINE
  8
0
 62
0
 10
82.3
 20
252.0
 30
0.0
 11
84.8
 21
256.330127019
 31
0.0
  0
LINE
  8
0
 62
0
 10
84.8
 20
247.669872981
 30
0.0
 11
82.3
 21
252.0
 31
0.0
  0
LINE
  8
0
 62
0
 10
89.8
 20
247.669872981
 30
0.0
 11
84.8
 21
247.669872981
 31
0.0
  0
LINE
  8
0
 62
0
 10
92.3
 20
218.4
 30
0.0
 11
89.8
 21
214.069872981
 31
0.0
  0
LINE
  8
0
 62
0
 10
89.8
 20
222.730127019
 30
0.0
 11
92.3
 21
218.4
 31
0.0
  0
LINE
  8
0
 62
0
 10
84.8
 20
222.730127019
 30
0.0
 11
89.8
 21
222.730127019
 31
0.0
  0
LINE
  8
0
 62
0
 10
82.3
 20
218.4
 30
0.0
 11
84.8
 21
222.730127019
 31
0.0
  0
LINE
  8
0
 62
0
 10
84.8
 20
214.069872981
 30
0.0
 11
82.3
 21
218.4
 31
0.0
  0
LINE
  8
0
 62
0
 10
89.8
 20
214.069872981
 30
0.0
 11
84.8
 21
214.069872981
 31
0.0
  0
LINE
  8
0
 62
0
 10
87.3
 20
226.135898385
 30
0.0
 11
84.3
 21
231.332050808
 31
0.0
  0
LINE
  8
0
 62
0
 10
90.3
 20
231.332050808
 30
0.0
 11
87.3
 21
226.135898385
 31
0.0
  0
LINE
  8
0
 62
0
 10
84.3
 20
231.332050808
 30
0.0
 11
90.3
 21
231.332050808
 31
0.0
  0
LINE
  8
0
 62
0
 10
74.6
 20
222.267949192
 30
0.0
 11
77.6
 21
227.464101615
 31
0.0
  0
LINE
  8
0
 62
0
 10
80.6
 20
222.267949192
 30
0.0
 11
74.6
 21
222.267949192
 31
0.0
  0
LINE
  8
0
 62
0
 10
77.6
 20
227.464101615
 30
0.0
 11
80.6
 21
222.267949192
 31
0.0
  0
LINE
  8
0
 62
0
 10
97.0
 20
209.335898385
 30
0.0
 11
94.0
 21
214.532050808
 31
0.0
  0
LINE
  8
0
 62
0
 10
100.0
 20
214.532050808
 30
0.0
 11
97.0
 21
209.335898385
 31
0.0
  0
LINE
  8
0
 62
0
 10
94.0
 20
214.532050808
 30
0.0
 11
100.0
 21
214.532050808
 31
0.0
  0
LINE
  8
0
 62
0
 10
87.3
 20
210.664101615
 30
0.0
 11
90.3
 21
205.467949192
 31
0.0
  0
LINE
  8
0
 62
0
 10
84.3
 20
205.467949192
 30
0.0
 11
87.3
 21
210.664101615
 31
0.0
  0
LINE
  8
0
 62
0
 10
90.3
 20
205.467949192
 30
0.0
 11
84.3
 21
205.467949192
 31
0.0
  0
LINE
  8
0
 62
0
 10
67.9
 20
210.664101615
 30
0.0
 11
70.9
 21
205.467949192
 31
0.0
  0
LINE
  8
0
 62
0
 10
64.9
 20
205.467949192
 30
0.0
 11
67.9
 21
210.664101615
 31
0.0
  0
LINE
  8
0
 62
0
 10
70.9
 20
205.467949192
 30
0.0
 11
64.9
 21
205.467949192
 31
0.0
  0
LINE
  8
0
 62
0
 10
94.0
 20
255.867949192
 30
0.0
 11
97.0
 21
261.064101615
 31
0.0
  0
LINE
  8
0
 62
0
 10
100.0
 20
255.867949192
 30
0.0
 11
94.0
 21
255.867949192
 31
0.0
  0
LINE
  8
0
 62
0
 10
97.0
 20
261.064101615
 30
0.0
 11
100.0
 21
255.867949192
 31
0.0
  0
LINE
  8
0
 62
0
 10
84.3
 20
264.932050808
 30
0.0
 11
90.3
 21
264.932050808
 31
0.0
  0
LINE
  8
0
 62
0
 10
87.3
 20
259.735898385
 30
0.0
 11
84.3
 21
264.932050808
 31
0.0
  0
LINE
  8
0
 62
0
 10
90.3
 20
264.932050808
 30
0.0
 11
87.3
 21
259.735898385
 31
0.0
  0
LINE
  8
0
 62
0
 10
51.5
 20
264.932050808
 30
0.0
 11
48.5
 21
259.735898385
 31
0.0
  0
LINE
  8
0
 62
0
 10
45.5
 20
264.932050808
 30
0.0
 11
51.5
 21
264.932050808
 31
0.0
  0
LINE
  8
0
 62
0
 10
48.5
 20
259.735898385
 30
0.0
 11
45.5
 21
264.932050808
 31
0.0
  0
LINE
  8
0
 62
0
 10
61.2
 20
255.867949192
 30
0.0
 11
55.2
 21
255.867949192
 31
0.0
  0
LINE
  8
0
 62
0
 10
58.2
 20
261.064101615
 30
0.0
 11
61.2
 21
255.867949192
 31
0.0
  0
LINE
  8
0
 62
0
 10
55.2
 20
255.867949192
 30
0.0
 11
58.2
 21
261.064101615
 31
0.0
  0
LINE
  8
0
 62
0
 10
72.9
 20
252.0
 30
0.0
 11
70.4
 21
247.669872981
 31
0.0
  0
LINE
  8
0
 62
0
 10
70.4
 20
256.330127019
 30
0.0
 11
72.9
 21
252.0
 31
0.0
  0
LINE
  8
0
 62
0
 10
65.4
 20
256.330127019
 30
0.0
 11
70.4
 21
256.330127019
 31
0.0
  0
LINE
  8
0
 62
0
 10
62.9
 20
252.0
 30
0.0
 11
65.4
 21
256.330127019
 31
0.0
  0
LINE
  8
0
 62
0
 10
65.4
 20
247.669872981
 30
0.0
 11
62.9
 21
252.0
 31
0.0
  0
LINE
  8
0
 62
0
 10
70.4
 20
247.669872981
 30
0.0
 11
65.4
 21
247.669872981
 31
0.0
  0
LINE
  8
0
 62
0
 10
94.0
 20
248.132050808
 30
0.0
 11
100.0
 21
248.132050808
 31
0.0
  0
LINE
  8
0
 62
0
 10
97.0
 20
242.935898385
 30
0.0
 11
94.0
 21
248.132050808
 31
0.0
  0
LINE
  8
0
 62
0
 10
100.0
 20
248.132050808
 30
0.0
 11
97.0
 21
242.935898385
 31
0.0
  0
LINE
  8
0
 62
0
 10
104.2
 20
247.669872981
 30
0.0
 11
101.7
 21
252.0
 31
0.0
  0
LINE
  8
0
 62
0
 10
109.2
 20
247.669872981
 30
0.0
 11
104.2
 21
247.669872981
 31
0.0
  0
LINE
  8
0
 62
0
 10
111.7
 20
252.0
 30
0.0
 11
109.2
 21
247.669872981
 31
0.0
  0
LINE
  8
0
 62
0
 10
109.2
 20
256.330127019
 30
0.0
 11
111.7
 21
252.0
 31
0.0
  0
LINE
  8
0
 62
0
 10
104.2
 20
256.330127019
 30
0.0
 11
109.2
 21
256.330127019
 31
0.0
  0
LINE
  8
0
 62
0
 10
101.7
 20
252.0
 30
0.0
 11
104.2
 21
256.330127019
 31
0.0
  0
LINE
  8
0
 62
0
 10
109.7
 20
239.067949192
 30
0.0
 11
103.7
 21
239.067949192
 31
0.0
  0
LINE
  8
0
 62
0
 10
106.7
 20
244.264101615
 30
0.0
 11
109.7
 21
239.067949192
 31
0.0
  0
LINE
  8
0
 62
0
 10
103.7
 20
239.067949192
 30
0.0
 11
106.7
 21
244.264101615
 31
0.0
  0
LINE
  8
0
 62
0
 10
99.5
 20
239.530127019
 30
0.0
 11
102.0
 21
235.2
 31
0.0
  0
LINE
  8
0
 62
0
 10
94.5
 20
239.530127019
 30
0.0
 11
99.5
 21
239.530127019
 31
0.0
  0
LINE
  8
0
 62
0
 10
92.0
 20
235.2
 30
0.0
 11
94.5
 21
239.530127019
 31
0.0
  0
LINE
  8
0
 62
0
 10
94.5
 20
230.869872981
 30
0.0
 11
92.0
 21
235.2
 31
0.0
  0
LINE
  8
0
 62
0
 10
99.5
 20
230.869872981
 30
0.0
 11
94.5
 21
230.869872981
 31
0.0
  0
LINE
  8
0
 62
0
 10
102.0
 20
235.2
 30
0.0
 11
99.5
 21
230.869872981
 31
0.0
  0
LINE
  8
0
 62
0
 10
103.7
 20
231.332050808
 30
0.0
 11
109.7
 21
231.332050808
 31
0.0
  0
LINE
  8
0
 62
0
 10
106.7
 20
226.135898385
 30
0.0
 11
103.7
 21
231.332050808
 31
0.0
  0
LINE
  8
0
 62
0
 10
109.7
 20
231.332050808
 30
0.0
 11
106.7
 21
226.135898385
 31
0.0
  0
LINE
  8
0
 62
0
 10
169.6
 20
235.2
 30
0.0
 11
172.1
 21
239.530127019
 31
0.0
  0
LINE
  8
0
 62
0
 10
172.1
 20
230.869872981
 30
0.0
 11
169.6
 21
235.2
 31
0.0
  0
LINE
  8
0
 62
0
 10
177.1
 20
230.869872981
 30
0.0
 11
172.1
 21
230.869872981
 31
0.0
  0
LINE
  8
0
 62
0
 10
179.6
 20
235.2
 30
0.0
 11
177.1
 21
230.869872981
 31
0.0
  0
LINE
  8
0
 62
0
 10
177.1
 20
239.530127019
 30
0.0
 11
179.6
 21
235.2
 31
0.0
  0
LINE
  8
0
 62
0
 10
172.1
 20
239.530127019
 30
0.0
 11
177.1
 21
239.530127019
 31
0.0
  0
LINE
  8
0
 62
0
 10
177.6
 20
222.267949192
 30
0.0
 11
171.6
 21
222.267949192
 31
0.0
  0
LINE
  8
0
 62
0
 10
174.6
 20
227.464101615
 30
0.0
 11
177.6
 21
222.267949192
 31
0.0
  0
LINE
  8
0
 62
0
 10
171.6
 20
222.267949192
 30
0.0
 11
174.6
 21
227.464101615
 31
0.0
  0
LINE
  8
0
 62
0
 10
140.8
 20
235.2
 30
0.0
 11
138.3
 21
230.869872981
 31
0.0
  0
LINE
  8
0
 62
0
 10
138.3
 20
239.530127019
 30
0.0
 11
140.8
 21
235.2
 31
0.0
  0
LINE
  8
0
 62
0
 10
133.3
 20
239.530127019
 30
0.0
 11
138.3
 21
239.530127019
 31
0.0
  0
LINE
  8
0
 62
0
 10
130.8
 20
235.2
 30
0.0
 11
133.3
 21
239.530127019
 31
0.0
  0
LINE
  8
0
 62
0
 10
133.3
 20
230.869872981
 30
0.0
 11
130.8
 21
235.2
 31
0.0
  0
LINE
  8
0
 62
0
 10
138.3
 20
230.869872981
 30
0.0
 11
133.3
 21
230.869872981
 31
0.0
  0
LINE
  8
0
 62
0
 10
145.5
 20
226.135898385
 30
0.0
 11
142.5
 21
231.332050808
 31
0.0
  0
LINE
  8
0
 62
0
 10
148.5
 20
231.332050808
 30
0.0
 11
145.5
 21
226.135898385
 31
0.0
  0
LINE
  8
0
 62
0
 10
142.5
 20
231.332050808
 30
0.0
 11
148.5
 21
231.332050808
 31
0.0
  0
LINE
  8
0
 62
0
 10
152.7
 20
239.530127019
 30
0.0
 11
157.7
 21
239.530127019
 31
0.0
  0
LINE
  8
0
 62
0
 10
150.2
 20
235.2
 30
0.0
 11
152.7
 21
239.530127019
 31
0.0
  0
LINE
  8
0
 62
0
 10
152.7
 20
230.869872981
 30
0.0
 11
150.2
 21
235.2
 31
0.0
  0
LINE
  8
0
 62
0
 10
157.7
 20
230.869872981
 30
0.0
 11
152.7
 21
230.869872981
 31
0.0
  0
LINE
  8
0
 62
0
 10
160.2
 20
235.2
 30
0.0
 11
157.7
 21
230.869872981
 31
0.0
  0
LINE
  8
0
 62
0
 10
157.7
 20
239.530127019
 30
0.0
 11
160.2
 21
235.2
 31
0.0
  0
LINE
  8
0
 62
0
 10
152.2
 20
222.267949192
 30
0.0
 11
155.2
 21
227.464101615
 31
0.0
  0
LINE
  8
0
 62
0
 10
158.2
 20
222.267949192
 30
0.0
 11
152.2
 21
222.267949192
 31
0.0
  0
LINE
  8
0
 62
0
 10
155.2
 20
227.464101615
 30
0.0
 11
158.2
 21
222.267949192
 31
0.0
  0
LINE
  8
0
 62
0
 10
171.6
 20
248.132050808
 30
0.0
 11
177.6
 21
248.132050808
 31
0.0
  0
LINE
  8
0
 62
0
 10
174.6
 20
242.935898385
 30
0.0
 11
171.6
 21
248.132050808
 31
0.0
  0
LINE
  8
0
 62
0
 10
177.6
 20
248.132050808
 30
0.0
 11
174.6
 21
242.935898385
 31
0.0
  0
LINE
  8
0
 62
0
 10
152.2
 20
248.132050808
 30
0.0
 11
158.2
 21
248.132050808
 31
0.0
  0
LINE
  8
0
 62
0
 10
155.2
 20
242.935898385
 30
0.0
 11
152.2
 21
248.132050808
 31
0.0
  0
LINE
  8
0
 62
0
 10
158.2
 20
248.132050808
 30
0.0
 11
155.2
 21
242.935898385
 31
0.0
  0
LINE
  8
0
 62
0
 10
138.8
 20
248.132050808
 30
0.0
 11
135.8
 21
242.935898385
 31
0.0
  0
LINE
  8
0
 62
0
 10
132.8
 20
248.132050808
 30
0.0
 11
138.8
 21
248.132050808
 31
0.0
  0
LINE
  8
0
 62
0
 10
135.8
 20
242.935898385
 30
0.0
 11
132.8
 21
248.132050808
 31
0.0
  0
LINE
  8
0
 62
0
 10
121.1
 20
252.0
 30
0.0
 11
123.6
 21
256.330127019
 31
0.0
  0
LINE
  8
0
 62
0
 10
123.6
 20
247.669872981
 30
0.0
 11
121.1
 21
252.0
 31
0.0
  0
LINE
  8
0
 62
0
 10
128.6
 20
247.669872981
 30
0.0
 11
123.6
 21
247.669872981
 31
0.0
  0
LINE
  8
0
 62
0
 10
131.1
 20
252.0
 30
0.0
 11
128.6
 21
247.669872981
 31
0.0
  0
LINE
  8
0
 62
0
 10
128.6
 20
256.330127019
 30
0.0
 11
131.1
 21
252.0
 31
0.0
  0
LINE
  8
0
 62
0
 10
123.6
 20
256.330127019
 30
0.0
 11
128.6
 21
256.330127019
 31
0.0
  0
LINE
  8
0
 62
0
 10
140.5
 20
252.0
 30
0.0
 11
143.0
 21
256.330127019
 31
0.0
  0
LINE
  8
0
 62
0
 10
143.0
 20
247.669872981
 30
0.0
 11
140.5
 21
252.0
 31
0.0
  0
LINE
  8
0
 62
0
 10
148.0
 20
247.669872981
 30
0.0
 11
143.0
 21
247.669872981
 31
0.0
  0
LINE
  8
0
 62
0
 10
150.5
 20
252.0
 30
0.0
 11
148.0
 21
247.669872981
 31
0.0
  0
LINE
  8
0
 62
0
 10
148.0
 20
256.330127019
 30
0.0
 11
150.5
 21
252.0
 31
0.0
  0
LINE
  8
0
 62
0
 10
143.0
 20
256.330127019
 30
0.0
 11
148.0
 21
256.330127019
 31
0.0
  0
LINE
  8
0
 62
0
 10
129.1
 20
231.332050808
 30
0.0
 11
126.1
 21
226.135898385
 31
0.0
  0
LINE
  8
0
 62
0
 10
123.1
 20
231.332050808
 30
0.0
 11
129.1
 21
231.332050808
 31
0.0
  0
LINE
  8
0
 62
0
 10
126.1
 20
226.135898385
 30
0.0
 11
123.1
 21
231.332050808
 31
0.0
  0
LINE
  8
0
 62
0
 10
121.4
 20
235.2
 30
0.0
 11
118.9
 21
230.869872981
 31
0.0
  0
LINE
  8
0
 62
0
 10
118.9
 20
239.530127019
 30
0.0
 11
121.4
 21
235.2
 31
0.0
  0
LINE
  8
0
 62
0
 10
113.9
 20
239.530127019
 30
0.0
 11
118.9
 21
239.530127019
 31
0.0
  0
LINE
  8
0
 62
0
 10
111.4
 20
235.2
 30
0.0
 11
113.9
 21
239.530127019
 31
0.0
  0
LINE
  8
0
 62
0
 10
113.9
 20
230.869872981
 30
0.0
 11
111.4
 21
235.2
 31
0.0
  0
LINE
  8
0
 62
0
 10
118.9
 20
230.869872981
 30
0.0
 11
113.9
 21
230.869872981
 31
0.0
  0
LINE
  8
0
 62
0
 10
128.6
 20
222.730127019
 30
0.0
 11
131.1
 21
218.4
 31
0.0
  0
LINE
  8
0
 62
0
 10
123.6
 20
222.730127019
 30
0.0
 11
128.6
 21
222.730127019
 31
0.0
  0
LINE
  8
0
 62
0
 10
121.1
 20
218.4
 30
0.0
 11
123.6
 21
222.730127019
 31
0.0
  0
LINE
  8
0
 62
0
 10
123.6
 20
214.069872981
 30
0.0
 11
121.1
 21
218.4
 31
0.0
  0
LINE
  8
0
 62
0
 10
128.6
 20
214.069872981
 30
0.0
 11
123.6
 21
214.069872981
 31
0.0
  0
LINE
  8
0
 62
0
 10
131.1
 20
218.4
 30
0.0
 11
128.6
 21
214.069872981
 31
0.0
  0
LINE
  8
0
 62
0
 10
135.8
 20
227.464101615
 30
0.0
 11
138.8
 21
222.267949192
 31
0.0
  0
LINE
  8
0
 62
0
 10
132.8
 20
222.267949192
 30
0.0
 11
135.8
 21
227.464101615
 31
0.0
  0
LINE
  8
0
 62
0
 10
138.8
 20
222.267949192
 30
0.0
 11
132.8
 21
222.267949192
 31
0.0
  0
LINE
  8
0
 62
0
 10
138.8
 20
214.532050808
 30
0.0
 11
135.8
 21
209.335898385
 31
0.0
  0
LINE
  8
0
 62
0
 10
132.8
 20
214.532050808
 30
0.0
 11
138.8
 21
214.532050808
 31
0.0
  0
LINE
  8
0
 62
0
 10
135.8
 20
209.335898385
 30
0.0
 11
132.8
 21
214.532050808
 31
0.0
  0
LINE
  8
0
 62
0
 10
129.1
 20
264.932050808
 30
0.0
 11
126.1
 21
259.735898385
 31
0.0
  0
LINE
  8
0
 62
0
 10
123.1
 20
264.932050808
 30
0.0
 11
129.1
 21
264.932050808
 31
0.0
  0
LINE
  8
0
 62
0
 10
126.1
 20
259.735898385
 30
0.0
 11
123.1
 21
264.932050808
 31
0.0
  0
LINE
  8
0
 62
0
 10
12.7
 20
264.932050808
 30
0.0
 11
9.7
 21
259.735898385
 31
0.0
  0
LINE
  8
0
 62
0
 10
6.7
 20
264.932050808
 30
0.0
 11
12.7
 21
264.932050808
 31
0.0
  0
LINE
  8
0
 62
0
 10
9.7
 20
259.735898385
 30
0.0
 11
6.7
 21
264.932050808
 31
0.0
  0
LINE
  8
0
 62
0
 10
12.2
 20
247.669872981
 30
0.0
 11
7.2
 21
247.669872981
 31
0.0
  0
LINE
  8
0
 62
0
 10
14.7
 20
252.0
 30
0.0
 11
12.2
 21
247.669872981
 31
0.0
  0
LINE
  8
0
 62
0
 10
12.2
 20
256.330127019
 30
0.0
 11
14.7
 21
252.0
 31
0.0
  0
LINE
  8
0
 62
0
 10
7.2
 20
256.330127019
 30
0.0
 11
12.2
 21
256.330127019
 31
0.0
  0
LINE
  8
0
 62
0
 10
4.7
 20
252.0
 30
0.0
 11
7.2
 21
256.330127019
 31
0.0
  0
LINE
  8
0
 62
0
 10
7.2
 20
247.669872981
 30
0.0
 11
4.7
 21
252.0
 31
0.0
  0
LINE
  8
0
 62
0
 10
22.4
 20
255.867949192
 30
0.0
 11
16.4
 21
255.867949192
 31
0.0
  0
LINE
  8
0
 62
0
 10
19.4
 20
261.064101615
 30
0.0
 11
22.4
 21
255.867949192
 31
0.0
  0
LINE
  8
0
 62
0
 10
16.4
 20
255.867949192
 30
0.0
 11
19.4
 21
261.064101615
 31
0.0
  0
LINE
  8
0
 62
0
 10
22.4
 20
248.132050808
 30
0.0
 11
19.4
 21
242.935898385
 31
0.0
  0
LINE
  8
0
 62
0
 10
16.4
 20
248.132050808
 30
0.0
 11
22.4
 21
248.132050808
 31
0.0
  0
LINE
  8
0
 62
0
 10
19.4
 20
242.935898385
 30
0.0
 11
16.4
 21
248.132050808
 31
0.0
  0
LINE
  8
0
 62
0
 10
35.8
 20
255.867949192
 30
0.0
 11
38.8
 21
261.064101615
 31
0.0
  0
LINE
  8
0
 62
0
 10
41.8
 20
255.867949192
 30
0.0
 11
35.8
 21
255.867949192
 31
0.0
  0
LINE
  8
0
 62
0
 10
38.8
 20
261.064101615
 30
0.0
 11
41.8
 21
255.867949192
 31
0.0
  0
LINE
  8
0
 62
0
 10
26.1
 20
264.932050808
 30
0.0
 11
32.1
 21
264.932050808
 31
0.0
  0
LINE
  8
0
 62
0
 10
29.1
 20
259.735898385
 30
0.0
 11
26.1
 21
264.932050808
 31
0.0
  0
LINE
  8
0
 62
0
 10
32.1
 20
264.932050808
 30
0.0
 11
29.1
 21
259.735898385
 31
0.0
  0
LINE
  8
0
 62
0
 10
26.6
 20
256.330127019
 30
0.0
 11
31.6
 21
256.330127019
 31
0.0
  0
LINE
  8
0
 62
0
 10
24.1
 20
252.0
 30
0.0
 11
26.6
 21
256.330127019
 31
0.0
  0
LINE
  8
0
 62
0
 10
26.6
 20
247.669872981
 30
0.0
 11
24.1
 21
252.0
 31
0.0
  0
LINE
  8
0
 62
0
 10
31.6
 20
247.669872981
 30
0.0
 11
26.6
 21
247.669872981
 31
0.0
  0
LINE
  8
0
 62
0
 10
34.1
 20
252.0
 30
0.0
 11
31.6
 21
247.669872981
 31
0.0
  0
LINE
  8
0
 62
0
 10
31.6
 20
256.330127019
 30
0.0
 11
34.1
 21
252.0
 31
0.0
  0
LINE
  8
0
 62
0
 10
6.7
 20
239.067949192
 30
0.0
 11
9.7
 21
244.264101615
 31
0.0
  0
LINE
  8
0
 62
0
 10
12.7
 20
239.067949192
 30
0.0
 11
6.7
 21
239.067949192
 31
0.0
  0
LINE
  8
0
 62
0
 10
9.7
 20
244.264101615
 30
0.0
 11
12.7
 21
239.067949192
 31
0.0
  0
LINE
  8
0
 62
0
 10
6.7
 20
231.332050808
 30
0.0
 11
12.7
 21
231.332050808
 31
0.0
  0
LINE
  8
0
 62
0
 10
9.7
 20
226.135898385
 30
0.0
 11
6.7
 21
231.332050808
 31
0.0
  0
LINE
  8
0
 62
0
 10
12.7
 20
231.332050808
 30
0.0
 11
9.7
 21
226.135898385
 31
0.0
  0
LINE
  8
0
 62
0
 10
16.9
 20
230.869872981
 30
0.0
 11
14.4
 21
235.2
 31
0.0
  0
LINE
  8
0
 62
0
 10
21.9
 20
230.869872981
 30
0.0
 11
16.9
 21
230.869872981
 31
0.0
  0
LINE
  8
0
 62
0
 10
24.4
 20
235.2
 30
0.0
 11
21.9
 21
230.869872981
 31
0.0
  0
LINE
  8
0
 62
0
 10
21.9
 20
239.530127019
 30
0.0
 11
24.4
 21
235.2
 31
0.0
  0
LINE
  8
0
 62
0
 10
16.9
 20
239.530127019
 30
0.0
 11
21.9
 21
239.530127019
 31
0.0
  0
LINE
  8
0
 62
0
 10
14.4
 20
235.2
 30
0.0
 11
16.9
 21
239.530127019
 31
0.0
  0
LINE
  8
0
 62
0
 10
38.8
 20
242.935898385
 30
0.0
 11
35.8
 21
248.132050808
 31
0.0
  0
LINE
  8
0
 62
0
 10
41.8
 20
248.132050808
 30
0.0
 11
38.8
 21
242.935898385
 31
0.0
  0
LINE
  8
0
 62
0
 10
35.8
 20
248.132050808
 30
0.0
 11
41.8
 21
248.132050808
 31
0.0
  0
LINE
  8
0
 62
0
 10
33.8
 20
235.2
 30
0.0
 11
36.3
 21
239.530127019
 31
0.0
  0
LINE
  8
0
 62
0
 10
36.3
 20
230.869872981
 30
0.0
 11
33.8
 21
235.2
 31
0.0
  0
LINE
  8
0
 62
0
 10
41.3
 20
230.869872981
 30
0.0
 11
36.3
 21
230.869872981
 31
0.0
  0
LINE
  8
0
 62
0
 10
43.8
 20
235.2
 30
0.0
 11
41.3
 21
230.869872981
 31
0.0
  0
LINE
  8
0
 62
0
 10
41.3
 20
239.530127019
 30
0.0
 11
43.8
 21
235.2
 31
0.0
  0
LINE
  8
0
 62
0
 10
36.3
 20
239.530127019
 30
0.0
 11
41.3
 21
239.530127019
 31
0.0
  0
LINE
  8
0
 62
0
 10
29.1
 20
244.264101615
 30
0.0
 11
32.1
 21
239.067949192
 31
0.0
  0
LINE
  8
0
 62
0
 10
26.1
 20
239.067949192
 30
0.0
 11
29.1
 21
244.264101615
 31
0.0
  0
LINE
  8
0
 62
0
 10
32.1
 20
239.067949192
 30
0.0
 11
26.1
 21
239.067949192
 31
0.0
  0
LINE
  8
0
 62
0
 10
26.1
 20
231.332050808
 30
0.0
 11
32.1
 21
231.332050808
 31
0.0
  0
LINE
  8
0
 62
0
 10
29.1
 20
226.135898385
 30
0.0
 11
26.1
 21
231.332050808
 31
0.0
  0
LINE
  8
0
 62
0
 10
32.1
 20
231.332050808
 30
0.0
 11
29.1
 21
226.135898385
 31
0.0
  0
LINE
  8
0
 62
0
 10
14.7
 20
218.4
 30
0.0
 11
12.2
 21
214.069872981
 31
0.0
  0
LINE
  8
0
 62
0
 10
12.2
 20
222.730127019
 30
0.0
 11
14.7
 21
218.4
 31
0.0
  0
LINE
  8
0
 62
0
 10
7.2
 20
222.730127019
 30
0.0
 11
12.2
 21
222.730127019
 31
0.0
  0
LINE
  8
0
 62
0
 10
4.7
 20
218.4
 30
0.0
 11
7.2
 21
222.730127019
 31
0.0
  0
LINE
  8
0
 62
0
 10
7.2
 20
214.069872981
 30
0.0
 11
4.7
 21
218.4
 31
0.0
  0
LINE
  8
0
 62
0
 10
12.2
 20
214.069872981
 30
0.0
 11
7.2
 21
214.069872981
 31
0.0
  0
LINE
  8
0
 62
0
 10
16.4
 20
222.267949192
 30
0.0
 11
19.4
 21
227.464101615
 31
0.0
  0
LINE
  8
0
 62
0
 10
22.4
 20
222.267949192
 30
0.0
 11
16.4
 21
222.267949192
 31
0.0
  0
LINE
  8
0
 62
0
 10
19.4
 20
227.464101615
 30
0.0
 11
22.4
 21
222.267949192
 31
0.0
  0
LINE
  8
0
 62
0
 10
26.6
 20
222.730127019
 30
0.0
 11
31.6
 21
222.730127019
 31
0.0
  0
LINE
  8
0
 62
0
 10
24.1
 20
218.4
 30
0.0
 11
26.6
 21
222.730127019
 31
0.0
  0
LINE
  8
0
 62
0
 10
26.6
 20
214.069872981
 30
0.0
 11
24.1
 21
218.4
 31
0.0
  0
LINE
  8
0
 62
0
 10
31.6
 20
214.069872981
 30
0.0
 11
26.6
 21
214.069872981
 31
0.0
  0
LINE
  8
0
 62
0
 10
34.1
 20
218.4
 30
0.0
 11
31.6
 21
214.069872981
 31
0.0
  0
LINE
  8
0
 62
0
 10
31.6
 20
222.730127019
 30
0.0
 11
34.1
 21
218.4
 31
0.0
  0
LINE
  8
0
 62
0
 10
38.8
 20
209.335898385
 30
0.0
 11
35.8
 21
214.532050808
 31
0.0
  0
LINE
  8
0
 62
0
 10
41.8
 20
214.532050808
 30
0.0
 11
38.8
 21
209.335898385
 31
0.0
  0
LINE
  8
0
 62
0
 10
35.8
 20
214.532050808
 30
0.0
 11
41.8
 21
214.532050808
 31
0.0
  0
LINE
  8
0
 62
0
 10
38.8
 20
227.464101615
 30
0.0
 11
41.8
 21
222.267949192
 31
0.0
  0
LINE
  8
0
 62
0
 10
35.8
 20
222.267949192
 30
0.0
 11
38.8
 21
227.464101615
 31
0.0
  0
LINE
  8
0
 62
0
 10
41.8
 20
222.267949192
 30
0.0
 11
35.8
 21
222.267949192
 31
0.0
  0
LINE
  8
0
 62
0
 10
32.1
 20
205.467949192
 30
0.0
 11
26.1
 21
205.467949192
 31
0.0
  0
LINE
  8
0
 62
0
 10
29.1
 20
210.664101615
 30
0.0
 11
32.1
 21
205.467949192
 31
0.0
  0
LINE
  8
0
 62
0
 10
26.1
 20
205.467949192
 30
0.0
 11
29.1
 21
210.664101615
 31
0.0
  0
LINE
  8
0
 62
0
 10
271.6
 20
7.73589838486
 30
0.0
 11
268.6
 21
12.9320508076
 31
0.0
  0
LINE
  8
0
 62
0
 10
274.6
 20
12.9320508076
 30
0.0
 11
271.6
 21
7.73589838486
 31
0.0
  0
LINE
  8
0
 62
0
 10
268.6
 20
12.9320508076
 30
0.0
 11
274.6
 21
12.9320508076
 31
0.0
  0
LINE
  8
0
 62
0
 10
264.9
 20
3.86794919243
 30
0.0
 11
258.9
 21
3.86794919243
 31
0.0
  0
LINE
  8
0
 62
0
 10
261.9
 20
9.06410161514
 30
0.0
 11
264.9
 21
3.86794919243
 31
0.0
  0
LINE
  8
0
 62
0
 10
258.9
 20
3.86794919243
 30
0.0
 11
261.9
 21
9.06410161514
 31
0.0
  0
LINE
  8
0
 62
0
 10
264.4
 20
12.4698729811
 30
0.0
 11
259.4
 21
12.4698729811
 31
0.0
  0
LINE
  8
0
 62
0
 10
266.9
 20
16.8
 30
0.0
 11
264.4
 21
12.4698729811
 31
0.0
  0
LINE
  8
0
 62
0
 10
264.4
 20
21.1301270189
 30
0.0
 11
266.9
 21
16.8
 31
0.0
  0
LINE
  8
0
 62
0
 10
259.4
 20
21.1301270189
 30
0.0
 11
264.4
 21
21.1301270189
 31
0.0
  0
LINE
  8
0
 62
0
 10
256.9
 20
16.8
 30
0.0
 11
259.4
 21
21.1301270189
 31
0.0
  0
LINE
  8
0
 62
0
 10
259.4
 20
12.4698729811
 30
0.0
 11
256.9
 21
16.8
 31
0.0
  0
LINE
  8
0
 62
0
 10
271.6
 20
25.8641016151
 30
0.0
 11
274.6
 21
20.6679491924
 31
0.0
  0
LINE
  8
0
 62
0
 10
268.6
 20
20.6679491924
 30
0.0
 11
271.6
 21
25.8641016151
 31
0.0
  0
LINE
  8
0
 62
0
 10
274.6
 20
20.6679491924
 30
0.0
 11
268.6
 21
20.6679491924
 31
0.0
  0
LINE
  8
0
 62
0
 10
242.5
 20
9.06410161514
 30
0.0
 11
245.5
 21
3.86794919243
 31
0.0
  0
LINE
  8
0
 62
0
 10
239.5
 20
3.86794919243
 30
0.0
 11
242.5
 21
9.06410161514
 31
0.0
  0
LINE
  8
0
 62
0
 10
245.5
 20
3.86794919243
 30
0.0
 11
239.5
 21
3.86794919243
 31
0.0
  0
LINE
  8
0
 62
0
 10
245.0
 20
12.4698729811
 30
0.0
 11
240.0
 21
12.4698729811
 31
0.0
  0
LINE
  8
0
 62
0
 10
247.5
 20
16.8
 30
0.0
 11
245.0
 21
12.4698729811
 31
0.0
  0
LINE
  8
0
 62
0
 10
245.0
 20
21.1301270189
 30
0.0
 11
247.5
 21
16.8
 31
0.0
  0
LINE
  8
0
 62
0
 10
240.0
 20
21.1301270189
 30
0.0
 11
245.0
 21
21.1301270189
 31
0.0
  0
LINE
  8
0
 62
0
 10
237.5
 20
16.8
 30
0.0
 11
240.0
 21
21.1301270189
 31
0.0
  0
LINE
  8
0
 62
0
 10
240.0
 20
12.4698729811
 30
0.0
 11
237.5
 21
16.8
 31
0.0
  0
LINE
  8
0
 62
0
 10
255.2
 20
12.9320508076
 30
0.0
 11
252.2
 21
7.73589838486
 31
0.0
  0
LINE
  8
0
 62
0
 10
249.2
 20
12.9320508076
 30
0.0
 11
255.2
 21
12.9320508076
 31
0.0
  0
LINE
  8
0
 62
0
 10
252.2
 20
7.73589838486
 30
0.0
 11
249.2
 21
12.9320508076
 31
0.0
  0
LINE
  8
0
 62
0
 10
242.5
 20
42.6641016151
 30
0.0
 11
245.5
 21
37.4679491924
 31
0.0
  0
LINE
  8
0
 62
0
 10
239.5
 20
37.4679491924
 30
0.0
 11
242.5
 21
42.6641016151
 31
0.0
  0
LINE
  8
0
 62
0
 10
245.5
 20
37.4679491924
 30
0.0
 11
239.5
 21
37.4679491924
 31
0.0
  0
LINE
  8
0
 62
0
 10
271.6
 20
41.3358983849
 30
0.0
 11
268.6
 21
46.5320508076
 31
0.0
  0
LINE
  8
0
 62
0
 10
274.6
 20
46.5320508076
 30
0.0
 11
271.6
 21
41.3358983849
 31
0.0
  0
LINE
  8
0
 62
0
 10
268.6
 20
46.5320508076
 30
0.0
 11
274.6
 21
46.5320508076
 31
0.0
  0
LINE
  8
0
 62
0
 10
252.2
 20
59.4641016151
 30
0.0
 11
255.2
 21
54.2679491924
 31
0.0
  0
LINE
  8
0
 62
0
 10
249.2
 20
54.2679491924
 30
0.0
 11
252.2
 21
59.4641016151
 31
0.0
  0
LINE
  8
0
 62
0
 10
255.2
 20
54.2679491924
 30
0.0
 11
249.2
 21
54.2679491924
 31
0.0
  0
LINE
  8
0
 62
0
 10
239.5
 20
63.3320508076
 30
0.0
 11
245.5
 21
63.3320508076
 31
0.0
  0
LINE
  8
0
 62
0
 10
242.5
 20
58.1358983849
 30
0.0
 11
239.5
 21
63.3320508076
 31
0.0
  0
LINE
  8
0
 62
0
 10
245.5
 20
63.3320508076
 30
0.0
 11
242.5
 21
58.1358983849
 31
0.0
  0
LINE
  8
0
 62
0
 10
271.6
 20
74.9358983849
 30
0.0
 11
268.6
 21
80.1320508076
 31
0.0
  0
LINE
  8
0
 62
0
 10
274.6
 20
80.1320508076
 30
0.0
 11
271.6
 21
74.9358983849
 31
0.0
  0
LINE
  8
0
 62
0
 10
268.6
 20
80.1320508076
 30
0.0
 11
274.6
 21
80.1320508076
 31
0.0
  0
LINE
  8
0
 62
0
 10
264.4
 20
88.3301270189
 30
0.0
 11
266.9
 21
84.0
 31
0.0
  0
LINE
  8
0
 62
0
 10
259.4
 20
88.3301270189
 30
0.0
 11
264.4
 21
88.3301270189
 31
0.0
  0
LINE
  8
0
 62
0
 10
256.9
 20
84.0
 30
0.0
 11
259.4
 21
88.3301270189
 31
0.0
  0
LINE
  8
0
 62
0
 10
259.4
 20
79.6698729811
 30
0.0
 11
256.9
 21
84.0
 31
0.0
  0
LINE
  8
0
 62
0
 10
264.4
 20
79.6698729811
 30
0.0
 11
259.4
 21
79.6698729811
 31
0.0
  0
LINE
  8
0
 62
0
 10
266.9
 20
84.0
 30
0.0
 11
264.4
 21
79.6698729811
 31
0.0
  0
LINE
  8
0
 62
0
 10
240.0
 20
88.3301270189
 30
0.0
 11
245.0
 21
88.3301270189
 31
0.0
  0
LINE
  8
0
 62
0
 10
237.5
 20
84.0
 30
0.0
 11
240.0
 21
88.3301270189
 31
0.0
  0
LINE
  8
0
 62
0
 10
240.0
 20
79.6698729811
 30
0.0
 11
237.5
 21
84.0
 31
0.0
  0
LINE
  8
0
 62
0
 10
245.0
 20
79.6698729811
 30
0.0
 11
240.0
 21
79.6698729811
 31
0.0
  0
LINE
  8
0
 62
0
 10
247.5
 20
84.0
 30
0.0
 11
245.0
 21
79.6698729811
 31
0.0
  0
LINE
  8
0
 62
0
 10
245.0
 20
88.3301270189
 30
0.0
 11
247.5
 21
84.0
 31
0.0
  0
LINE
  8
0
 62
0
 10
264.9
 20
164.132050808
 30
0.0
 11
261.9
 21
158.935898385
 31
0.0
  0
LINE
  8
0
 62
0
 10
258.9
 20
164.132050808
 30
0.0
 11
264.9
 21
164.132050808
 31
0.0
  0
LINE
  8
0
 62
0
 10
261.9
 20
158.935898385
 30
0.0
 11
258.9
 21
164.132050808
 31
0.0
  0
LINE
  8
0
 62
0
 10
264.9
 20
171.867949192
 30
0.0
 11
258.9
 21
171.867949192
 31
0.0
  0
LINE
  8
0
 62
0
 10
261.9
 20
177.064101615
 30
0.0
 11
264.9
 21
171.867949192
 31
0.0
  0
LINE
  8
0
 62
0
 10
258.9
 20
171.867949192
 30
0.0
 11
261.9
 21
177.064101615
 31
0.0
  0
LINE
  8
0
 62
0
 10
247.2
 20
168.0
 30
0.0
 11
249.7
 21
172.330127019
 31
0.0
  0
LINE
  8
0
 62
0
 10
249.7
 20
163.669872981
 30
0.0
 11
247.2
 21
168.0
 31
0.0
  0
LINE
  8
0
 62
0
 10
254.7
 20
163.669872981
 30
0.0
 11
249.7
 21
163.669872981
 31
0.0
  0
LINE
  8
0
 62
0
 10
257.2
 20
168.0
 30
0.0
 11
254.7
 21
163.669872981
 31
0.0
  0
LINE
  8
0
 62
0
 10
254.7
 20
172.330127019
 30
0.0
 11
257.2
 21
168.0
 31
0.0
  0
LINE
  8
0
 62
0
 10
249.7
 20
172.330127019
 30
0.0
 11
254.7
 21
172.330127019
 31
0.0
  0
LINE
  8
0
 62
0
 10
240.0
 20
146.869872981
 30
0.0
 11
237.5
 21
151.2
 31
0.0
  0
LINE
  8
0
 62
0
 10
245.0
 20
146.869872981
 30
0.0
 11
240.0
 21
146.869872981
 31
0.0
  0
LINE
  8
0
 62
0
 10
247.5
 20
151.2
 30
0.0
 11
245.0
 21
146.869872981
 31
0.0
  0
LINE
  8
0
 62
0
 10
245.0
 20
155.530127019
 30
0.0
 11
247.5
 21
151.2
 31
0.0
  0
LINE
  8
0
 62
0
 10
240.0
 20
155.530127019
 30
0.0
 11
245.0
 21
155.530127019
 31
0.0
  0
LINE
  8
0
 62
0
 10
237.5
 20
151.2
 30
0.0
 11
240.0
 21
155.530127019
 31
0.0
  0
LINE
  8
0
 62
0
 10
256.9
 20
151.2
 30
0.0
 11
259.4
 21
155.530127019
 31
0.0
  0
LINE
  8
0
 62
0
 10
259.4
 20
146.869872981
 30
0.0
 11
256.9
 21
151.2
 31
0.0
  0
LINE
  8
0
 62
0
 10
264.4
 20
146.869872981
 30
0.0
 11
259.4
 21
146.869872981
 31
0.0
  0
LINE
  8
0
 62
0
 10
266.9
 20
151.2
 30
0.0
 11
264.4
 21
146.869872981
 31
0.0
  0
LINE
  8
0
 62
0
 10
264.4
 20
155.530127019
 30
0.0
 11
266.9
 21
151.2
 31
0.0
  0
LINE
  8
0
 62
0
 10
259.4
 20
155.530127019
 30
0.0
 11
264.4
 21
155.530127019
 31
0.0
  0
LINE
  8
0
 62
0
 10
242.5
 20
143.464101615
 30
0.0
 11
245.5
 21
138.267949192
 31
0.0
  0
LINE
  8
0
 62
0
 10
239.5
 20
138.267949192
 30
0.0
 11
242.5
 21
143.464101615
 31
0.0
  0
LINE
  8
0
 62
0
 10
245.5
 20
138.267949192
 30
0.0
 11
239.5
 21
138.267949192
 31
0.0
  0
LINE
  8
0
 62
0
 10
268.6
 20
113.732050808
 30
0.0
 11
274.6
 21
113.732050808
 31
0.0
  0
LINE
  8
0
 62
0
 10
271.6
 20
108.535898385
 30
0.0
 11
268.6
 21
113.732050808
 31
0.0
  0
LINE
  8
0
 62
0
 10
274.6
 20
113.732050808
 30
0.0
 11
271.6
 21
108.535898385
 31
0.0
  0
LINE
  8
0
 62
0
 10
271.6
 20
142.135898385
 30
0.0
 11
268.6
 21
147.332050808
 31
0.0
  0
LINE
  8
0
 62
0
 10
274.6
 20
147.332050808
 30
0.0
 11
271.6
 21
142.135898385
 31
0.0
  0
LINE
  8
0
 62
0
 10
268.6
 20
147.332050808
 30
0.0
 11
274.6
 21
147.332050808
 31
0.0
  0
LINE
  8
0
 62
0
 10
247.5
 20
117.6
 30
0.0
 11
245.0
 21
113.269872981
 31
0.0
  0
LINE
  8
0
 62
0
 10
245.0
 20
121.930127019
 30
0.0
 11
247.5
 21
117.6
 31
0.0
  0
LINE
  8
0
 62
0
 10
240.0
 20
121.930127019
 30
0.0
 11
245.0
 21
121.930127019
 31
0.0
  0
LINE
  8
0
 62
0
 10
237.5
 20
117.6
 30
0.0
 11
240.0
 21
121.930127019
 31
0.0
  0
LINE
  8
0
 62
0
 10
240.0
 20
113.269872981
 30
0.0
 11
237.5
 21
117.6
 31
0.0
  0
LINE
  8
0
 62
0
 10
245.0
 20
113.269872981
 30
0.0
 11
240.0
 21
113.269872981
 31
0.0
  0
LINE
  8
0
 62
0
 10
239.5
 20
130.532050808
 30
0.0
 11
245.5
 21
130.532050808
 31
0.0
  0
LINE
  8
0
 62
0
 10
242.5
 20
125.335898385
 30
0.0
 11
239.5
 21
130.532050808
 31
0.0
  0
LINE
  8
0
 62
0
 10
245.5
 20
130.532050808
 30
0.0
 11
242.5
 21
125.335898385
 31
0.0
  0
LINE
  8
0
 62
0
 10
266.9
 20
117.6
 30
0.0
 11
264.4
 21
113.269872981
 31
0.0
  0
LINE
  8
0
 62
0
 10
264.4
 20
121.930127019
 30
0.0
 11
266.9
 21
117.6
 31
0.0
  0
LINE
  8
0
 62
0
 10
259.4
 20
121.930127019
 30
0.0
 11
264.4
 21
121.930127019
 31
0.0
  0
LINE
  8
0
 62
0
 10
256.9
 20
117.6
 30
0.0
 11
259.4
 21
121.930127019
 31
0.0
  0
LINE
  8
0
 62
0
 10
259.4
 20
113.269872981
 30
0.0
 11
256.9
 21
117.6
 31
0.0
  0
LINE
  8
0
 62
0
 10
264.4
 20
113.269872981
 30
0.0
 11
259.4
 21
113.269872981
 31
0.0
  0
LINE
  8
0
 62
0
 10
258.9
 20
104.667949192
 30
0.0
 11
261.9
 21
109.864101615
 31
0.0
  0
LINE
  8
0
 62
0
 10
264.9
 20
104.667949192
 30
0.0
 11
258.9
 21
104.667949192
 31
0.0
  0
LINE
  8
0
 62
0
 10
261.9
 20
109.864101615
 30
0.0
 11
264.9
 21
104.667949192
 31
0.0
  0
LINE
  8
0
 62
0
 10
242.5
 20
91.7358983849
 30
0.0
 11
239.5
 21
96.9320508076
 31
0.0
  0
LINE
  8
0
 62
0
 10
245.5
 20
96.9320508076
 30
0.0
 11
242.5
 21
91.7358983849
 31
0.0
  0
LINE
  8
0
 62
0
 10
239.5
 20
96.9320508076
 30
0.0
 11
245.5
 21
96.9320508076
 31
0.0
  0
LINE
  8
0
 62
0
 10
235.8
 20
46.5320508076
 30
0.0
 11
232.8
 21
41.3358983849
 31
0.0
  0
LINE
  8
0
 62
0
 10
229.8
 20
46.5320508076
 30
0.0
 11
235.8
 21
46.5320508076
 31
0.0
  0
LINE
  8
0
 62
0
 10
232.8
 20
41.3358983849
 30
0.0
 11
229.8
 21
46.5320508076
 31
0.0
  0
LINE
  8
0
 62
0
 10
229.8
 20
54.2679491924
 30
0.0
 11
232.8
 21
59.4641016151
 31
0.0
  0
LINE
  8
0
 62
0
 10
235.8
 20
54.2679491924
 30
0.0
 11
229.8
 21
54.2679491924
 31
0.0
  0
LINE
  8
0
 62
0
 10
232.8
 20
59.4641016151
 30
0.0
 11
235.8
 21
54.2679491924
 31
0.0
  0
LINE
  8
0
 62
0
 10
235.8
 20
12.9320508076
 30
0.0
 11
232.8
 21
7.73589838486
 31
0.0
  0
LINE
  8
0
 62
0
 10
229.8
 20
12.9320508076
 30
0.0
 11
235.8
 21
12.9320508076
 31
0.0
  0
LINE
  8
0
 62
0
 10
232.8
 20
7.73589838486
 30
0.0
 11
229.8
 21
12.9320508076
 31
0.0
  0
LINE
  8
0
 62
0
 10
235.8
 20
20.6679491924
 30
0.0
 11
229.8
 21
20.6679491924
 31
0.0
  0
LINE
  8
0
 62
0
 10
232.8
 20
25.8641016151
 30
0.0
 11
235.8
 21
20.6679491924
 31
0.0
  0
LINE
  8
0
 62
0
 10
229.8
 20
20.6679491924
 30
0.0
 11
232.8
 21
25.8641016151
 31
0.0
  0
LINE
  8
0
 62
0
 10
232.8
 20
93.0641016151
 30
0.0
 11
235.8
 21
87.8679491924
 31
0.0
  0
LINE
  8
0
 62
0
 10
229.8
 20
87.8679491924
 30
0.0
 11
232.8
 21
93.0641016151
 31
0.0
  0
LINE
  8
0
 62
0
 10
235.8
 20
87.8679491924
 30
0.0
 11
229.8
 21
87.8679491924
 31
0.0
  0
LINE
  8
0
 62
0
 10
225.6
 20
21.1301270189
 30
0.0
 11
228.1
 21
16.8
 31
0.0
  0
LINE
  8
0
 62
0
 10
220.6
 20
21.1301270189
 30
0.0
 11
225.6
 21
21.1301270189
 31
0.0
  0
LINE
  8
0
 62
0
 10
218.1
 20
16.8
 30
0.0
 11
220.6
 21
21.1301270189
 31
0.0
  0
LINE
  8
0
 62
0
 10
220.6
 20
12.4698729811
 30
0.0
 11
218.1
 21
16.8
 31
0.0
  0
LINE
  8
0
 62
0
 10
225.6
 20
12.4698729811
 30
0.0
 11
220.6
 21
12.4698729811
 31
0.0
  0
LINE
  8
0
 62
0
 10
228.1
 20
16.8
 30
0.0
 11
225.6
 21
12.4698729811
 31
0.0
  0
LINE
  8
0
 62
0
 10
226.1
 20
37.4679491924
 30
0.0
 11
220.1
 21
37.4679491924
 31
0.0
  0
LINE
  8
0
 62
0
 10
223.1
 20
42.6641016151
 30
0.0
 11
226.1
 21
37.4679491924
 31
0.0
  0
LINE
  8
0
 62
0
 10
220.1
 20
37.4679491924
 30
0.0
 11
223.1
 21
42.6641016151
 31
0.0
  0
LINE
  8
0
 62
0
 10
228.1
 20
84.0
 30
0.0
 11
225.6
 21
79.6698729811
 31
0.0
  0
LINE
  8
0
 62
0
 10
225.6
 20
88.3301270189
 30
0.0
 11
228.1
 21
84.0
 31
0.0
  0
LINE
  8
0
 62
0
 10
220.6
 20
88.3301270189
 30
0.0
 11
225.6
 21
88.3301270189
 31
0.0
  0
LINE
  8
0
 62
0
 10
218.1
 20
84.0
 30
0.0
 11
220.6
 21
88.3301270189
 31
0.0
  0
LINE
  8
0
 62
0
 10
220.6
 20
79.6698729811
 30
0.0
 11
218.1
 21
84.0
 31
0.0
  0
LINE
  8
0
 62
0
 10
225.6
 20
79.6698729811
 30
0.0
 11
220.6
 21
79.6698729811
 31
0.0
  0
LINE
  8
0
 62
0
 10
226.1
 20
71.0679491924
 30
0.0
 11
220.1
 21
71.0679491924
 31
0.0
  0
LINE
  8
0
 62
0
 10
223.1
 20
76.2641016151
 30
0.0
 11
226.1
 21
71.0679491924
 31
0.0
  0
LINE
  8
0
 62
0
 10
220.1
 20
71.0679491924
 30
0.0
 11
223.1
 21
76.2641016151
 31
0.0
  0
LINE
  8
0
 62
0
 10
210.9
 20
62.8698729811
 30
0.0
 11
208.4
 21
67.2
 31
0.0
  0
LINE
  8
0
 62
0
 10
215.9
 20
62.8698729811
 30
0.0
 11
210.9
 21
62.8698729811
 31
0.0
  0
LINE
  8
0
 62
0
 10
218.4
 20
67.2
 30
0.0
 11
215.9
 21
62.8698729811
 31
0.0
  0
LINE
  8
0
 62
0
 10
215.9
 20
71.5301270189
 30
0.0
 11
218.4
 21
67.2
 31
0.0
  0
LINE
  8
0
 62
0
 10
210.9
 20
71.5301270189
 30
0.0
 11
215.9
 21
71.5301270189
 31
0.0
  0
LINE
  8
0
 62
0
 10
208.4
 20
67.2
 30
0.0
 11
210.9
 21
71.5301270189
 31
0.0
  0
LINE
  8
0
 62
0
 10
206.2
 20
46.0698729811
 30
0.0
 11
201.2
 21
46.0698729811
 31
0.0
  0
LINE
  8
0
 62
0
 10
208.7
 20
50.4
 30
0.0
 11
206.2
 21
46.0698729811
 31
0.0
  0
LINE
  8
0
 62
0
 10
206.2
 20
54.7301270189
 30
0.0
 11
208.7
 21
50.4
 31
0.0
  0
LINE
  8
0
 62
0
 10
201.2
 20
54.7301270189
 30
0.0
 11
206.2
 21
54.7301270189
 31
0.0
  0
LINE
  8
0
 62
0
 10
198.7
 20
50.4
 30
0.0
 11
201.2
 21
54.7301270189
 31
0.0
  0
LINE
  8
0
 62
0
 10
201.2
 20
46.0698729811
 30
0.0
 11
198.7
 21
50.4
 31
0.0
  0
LINE
  8
0
 62
0
 10
206.7
 20
63.3320508076
 30
0.0
 11
203.7
 21
58.1358983849
 31
0.0
  0
LINE
  8
0
 62
0
 10
200.7
 20
63.3320508076
 30
0.0
 11
206.7
 21
63.3320508076
 31
0.0
  0
LINE
  8
0
 62
0
 10
203.7
 20
58.1358983849
 30
0.0
 11
200.7
 21
63.3320508076
 31
0.0
  0
LINE
  8
0
 62
0
 10
223.1
 20
177.064101615
 30
0.0
 11
226.1
 21
171.867949192
 31
0.0
  0
LINE
  8
0
 62
0
 10
220.1
 20
171.867949192
 30
0.0
 11
223.1
 21
177.064101615
 31
0.0
  0
LINE
  8
0
 62
0
 10
226.1
 20
171.867949192
 30
0.0
 11
220.1
 21
171.867949192
 31
0.0
  0
LINE
  8
0
 62
0
 10
220.6
 20
113.269872981
 30
0.0
 11
218.1
 21
117.6
 31
0.0
  0
LINE
  8
0
 62
0
 10
225.6
 20
113.269872981
 30
0.0
 11
220.6
 21
113.269872981
 31
0.0
  0
LINE
  8
0
 62
0
 10
228.1
 20
117.6
 30
0.0
 11
225.6
 21
113.269872981
 31
0.0
  0
LINE
  8
0
 62
0
 10
225.6
 20
121.930127019
 30
0.0
 11
228.1
 21
117.6
 31
0.0
  0
LINE
  8
0
 62
0
 10
220.6
 20
121.930127019
 30
0.0
 11
225.6
 21
121.930127019
 31
0.0
  0
LINE
  8
0
 62
0
 10
218.1
 20
117.6
 30
0.0
 11
220.6
 21
121.930127019
 31
0.0
  0
LINE
  8
0
 62
0
 10
215.9
 20
105.130127019
 30
0.0
 11
218.4
 21
100.8
 31
0.0
  0
LINE
  8
0
 62
0
 10
210.9
 20
105.130127019
 30
0.0
 11
215.9
 21
105.130127019
 31
0.0
  0
LINE
  8
0
 62
0
 10
208.4
 20
100.8
 30
0.0
 11
210.9
 21
105.130127019
 31
0.0
  0
LINE
  8
0
 62
0
 10
210.9
 20
96.4698729811
 30
0.0
 11
208.4
 21
100.8
 31
0.0
  0
LINE
  8
0
 62
0
 10
215.9
 20
96.4698729811
 30
0.0
 11
210.9
 21
96.4698729811
 31
0.0
  0
LINE
  8
0
 62
0
 10
218.4
 20
100.8
 30
0.0
 11
215.9
 21
96.4698729811
 31
0.0
  0
LINE
  8
0
 62
0
 10
189.0
 20
67.2
 30
0.0
 11
191.5
 21
71.5301270189
 31
0.0
  0
LINE
  8
0
 62
0
 10
191.5
 20
62.8698729811
 30
0.0
 11
189.0
 21
67.2
 31
0.0
  0
LINE
  8
0
 62
0
 10
196.5
 20
62.8698729811
 30
0.0
 11
191.5
 21
62.8698729811
 31
0.0
  0
LINE
  8
0
 62
0
 10
199.0
 20
67.2
 30
0.0
 11
196.5
 21
62.8698729811
 31
0.0
  0
LINE
  8
0
 62
0
 10
196.5
 20
71.5301270189
 30
0.0
 11
199.0
 21
67.2
 31
0.0
  0
LINE
  8
0
 62
0
 10
191.5
 20
71.5301270189
 30
0.0
 11
196.5
 21
71.5301270189
 31
0.0
  0
LINE
  8
0
 62
0
 10
189.3
 20
84.0
 30
0.0
 11
186.8
 21
79.6698729811
 31
0.0
  0
LINE
  8
0
 62
0
 10
186.8
 20
88.3301270189
 30
0.0
 11
189.3
 21
84.0
 31
0.0
  0
LINE
  8
0
 62
0
 10
181.8
 20
88.3301270189
 30
0.0
 11
186.8
 21
88.3301270189
 31
0.0
  0
LINE
  8
0
 62
0
 10
179.3
 20
84.0
 30
0.0
 11
181.8
 21
88.3301270189
 31
0.0
  0
LINE
  8
0
 62
0
 10
181.8
 20
79.6698729811
 30
0.0
 11
179.3
 21
84.0
 31
0.0
  0
LINE
  8
0
 62
0
 10
186.8
 20
79.6698729811
 30
0.0
 11
181.8
 21
79.6698729811
 31
0.0
  0
LINE
  8
0
 62
0
 10
181.3
 20
71.0679491924
 30
0.0
 11
184.3
 21
76.2641016151
 31
0.0
  0
LINE
  8
0
 62
0
 10
187.3
 20
71.0679491924
 30
0.0
 11
181.3
 21
71.0679491924
 31
0.0
  0
LINE
  8
0
 62
0
 10
184.3
 20
76.2641016151
 30
0.0
 11
187.3
 21
71.0679491924
 31
0.0
  0
LINE
  8
0
 62
0
 10
197.0
 20
113.732050808
 30
0.0
 11
194.0
 21
108.535898385
 31
0.0
  0
LINE
  8
0
 62
0
 10
191.0
 20
113.732050808
 30
0.0
 11
197.0
 21
113.732050808
 31
0.0
  0
LINE
  8
0
 62
0
 10
194.0
 20
108.535898385
 30
0.0
 11
191.0
 21
113.732050808
 31
0.0
  0
LINE
  8
0
 62
0
 10
191.0
 20
20.6679491924
 30
0.0
 11
194.0
 21
25.8641016151
 31
0.0
  0
LINE
  8
0
 62
0
 10
197.0
 20
20.6679491924
 30
0.0
 11
191.0
 21
20.6679491924
 31
0.0
  0
LINE
  8
0
 62
0
 10
194.0
 20
25.8641016151
 30
0.0
 11
197.0
 21
20.6679491924
 31
0.0
  0
LINE
  8
0
 62
0
 10
200.7
 20
29.7320508076
 30
0.0
 11
206.7
 21
29.7320508076
 31
0.0
  0
LINE
  8
0
 62
0
 10
203.7
 20
24.5358983849
 30
0.0
 11
200.7
 21
29.7320508076
 31
0.0
  0
LINE
  8
0
 62
0
 10
206.7
 20
29.7320508076
 30
0.0
 11
203.7
 21
24.5358983849
 31
0.0
  0
LINE
  8
0
 62
0
 10
201.2
 20
21.1301270189
 30
0.0
 11
206.2
 21
21.1301270189
 31
0.0
  0
LINE
  8
0
 62
0
 10
198.7
 20
16.8
 30
0.0
 11
201.2
 21
21.1301270189
 31
0.0
  0
LINE
  8
0
 62
0
 10
201.2
 20
12.4698729811
 30
0.0
 11
198.7
 21
16.8
 31
0.0
  0
LINE
  8
0
 62
0
 10
206.2
 20
12.4698729811
 30
0.0
 11
201.2
 21
12.4698729811
 31
0.0
  0
LINE
  8
0
 62
0
 10
208.7
 20
16.8
 30
0.0
 11
206.2
 21
12.4698729811
 31
0.0
  0
LINE
  8
0
 62
0
 10
206.2
 20
21.1301270189
 30
0.0
 11
208.7
 21
16.8
 31
0.0
  0
LINE
  8
0
 62
0
 10
194.0
 20
41.3358983849
 30
0.0
 11
191.0
 21
46.5320508076
 31
0.0
  0
LINE
  8
0
 62
0
 10
197.0
 20
46.5320508076
 30
0.0
 11
194.0
 21
41.3358983849
 31
0.0
  0
LINE
  8
0
 62
0
 10
191.0
 20
46.5320508076
 30
0.0
 11
197.0
 21
46.5320508076
 31
0.0
  0
LINE
  8
0
 62
0
 10
200.7
 20
37.4679491924
 30
0.0
 11
203.7
 21
42.6641016151
 31
0.0
  0
LINE
  8
0
 62
0
 10
206.7
 20
37.4679491924
 30
0.0
 11
200.7
 21
37.4679491924
 31
0.0
  0
LINE
  8
0
 62
0
 10
203.7
 20
42.6641016151
 30
0.0
 11
206.7
 21
37.4679491924
 31
0.0
  0
LINE
  8
0
 62
0
 10
187.3
 20
37.4679491924
 30
0.0
 11
181.3
 21
37.4679491924
 31
0.0
  0
LINE
  8
0
 62
0
 10
184.3
 20
42.6641016151
 30
0.0
 11
187.3
 21
37.4679491924
 31
0.0
  0
LINE
  8
0
 62
0
 10
181.3
 20
37.4679491924
 30
0.0
 11
184.3
 21
42.6641016151
 31
0.0
  0
LINE
  8
0
 62
0
 10
184.3
 20
9.06410161514
 30
0.0
 11
187.3
 21
3.86794919243
 31
0.0
  0
LINE
  8
0
 62
0
 10
181.3
 20
3.86794919243
 30
0.0
 11
184.3
 21
9.06410161514
 31
0.0
  0
LINE
  8
0
 62
0
 10
187.3
 20
3.86794919243
 30
0.0
 11
181.3
 21
3.86794919243
 31
0.0
  0
LINE
  8
0
 62
0
 10
169.6
 20
134.4
 30
0.0
 11
172.1
 21
138.730127019
 31
0.0
  0
LINE
  8
0
 62
0
 10
172.1
 20
130.069872981
 30
0.0
 11
169.6
 21
134.4
 31
0.0
  0
LINE
  8
0
 62
0
 10
177.1
 20
130.069872981
 30
0.0
 11
172.1
 21
130.069872981
 31
0.0
  0
LINE
  8
0
 62
0
 10
179.6
 20
134.4
 30
0.0
 11
177.1
 21
130.069872981
 31
0.0
  0
LINE
  8
0
 62
0
 10
177.1
 20
138.730127019
 30
0.0
 11
179.6
 21
134.4
 31
0.0
  0
LINE
  8
0
 62
0
 10
172.1
 20
138.730127019
 30
0.0
 11
177.1
 21
138.730127019
 31
0.0
  0
LINE
  8
0
 62
0
 10
161.9
 20
3.86794919243
 30
0.0
 11
164.9
 21
9.06410161514
 31
0.0
  0
LINE
  8
0
 62
0
 10
167.9
 20
3.86794919243
 30
0.0
 11
161.9
 21
3.86794919243
 31
0.0
  0
LINE
  8
0
 62
0
 10
164.9
 20
9.06410161514
 30
0.0
 11
167.9
 21
3.86794919243
 31
0.0
  0
LINE
  8
0
 62
0
 10
169.9
 20
151.2
 30
0.0
 11
167.4
 21
146.869872981
 31
0.0
  0
LINE
  8
0
 62
0
 10
167.4
 20
155.530127019
 30
0.0
 11
169.9
 21
151.2
 31
0.0
  0
LINE
  8
0
 62
0
 10
162.4
 20
155.530127019
 30
0.0
 11
167.4
 21
155.530127019
 31
0.0
  0
LINE
  8
0
 62
0
 10
159.9
 20
151.2
 30
0.0
 11
162.4
 21
155.530127019
 31
0.0
  0
LINE
  8
0
 62
0
 10
162.4
 20
146.869872981
 30
0.0
 11
159.9
 21
151.2
 31
0.0
  0
LINE
  8
0
 62
0
 10
167.4
 20
146.869872981
 30
0.0
 11
162.4
 21
146.869872981
 31
0.0
  0
LINE
  8
0
 62
0
 10
161.9
 20
138.267949192
 30
0.0
 11
164.9
 21
143.464101615
 31
0.0
  0
LINE
  8
0
 62
0
 10
167.9
 20
138.267949192
 30
0.0
 11
161.9
 21
138.267949192
 31
0.0
  0
LINE
  8
0
 62
0
 10
164.9
 20
143.464101615
 30
0.0
 11
167.9
 21
138.267949192
 31
0.0
  0
LINE
  8
0
 62
0
 10
167.9
 20
29.7320508076
 30
0.0
 11
164.9
 21
24.5358983849
 31
0.0
  0
LINE
  8
0
 62
0
 10
161.9
 20
29.7320508076
 30
0.0
 11
167.9
 21
29.7320508076
 31
0.0
  0
LINE
  8
0
 62
0
 10
164.9
 20
24.5358983849
 30
0.0
 11
161.9
 21
29.7320508076
 31
0.0
  0
LINE
  8
0
 62
0
 10
157.7
 20
37.9301270189
 30
0.0
 11
160.2
 21
33.6
 31
0.0
  0
LINE
  8
0
 62
0
 10
152.7
 20
37.9301270189
 30
0.0
 11
157.7
 21
37.9301270189
 31
0.0
  0
LINE
  8
0
 62
0
 10
150.2
 20
33.6
 30
0.0
 11
152.7
 21
37.9301270189
 31
0.0
  0
LINE
  8
0
 62
0
 10
152.7
 20
29.2698729811
 30
0.0
 11
150.2
 21
33.6
 31
0.0
  0
LINE
  8
0
 62
0
 10
157.7
 20
29.2698729811
 30
0.0
 11
152.7
 21
29.2698729811
 31
0.0
  0
LINE
  8
0
 62
0
 10
160.2
 20
33.6
 30
0.0
 11
157.7
 21
29.2698729811
 31
0.0
  0
LINE
  8
0
 62
0
 10
169.9
 20
50.4
 30
0.0
 11
167.4
 21
46.0698729811
 31
0.0
  0
LINE
  8
0
 62
0
 10
167.4
 20
54.7301270189
 30
0.0
 11
169.9
 21
50.4
 31
0.0
  0
LINE
  8
0
 62
0
 10
162.4
 20
54.7301270189
 30
0.0
 11
167.4
 21
54.7301270189
 31
0.0
  0
LINE
  8
0
 62
0
 10
159.9
 20
50.4
 30
0.0
 11
162.4
 21
54.7301270189
 31
0.0
  0
LINE
  8
0
 62
0
 10
162.4
 20
46.0698729811
 30
0.0
 11
159.9
 21
50.4
 31
0.0
  0
LINE
  8
0
 62
0
 10
167.4
 20
46.0698729811
 30
0.0
 11
162.4
 21
46.0698729811
 31
0.0
  0
LINE
  8
0
 62
0
 10
157.7
 20
71.5301270189
 30
0.0
 11
160.2
 21
67.2
 31
0.0
  0
LINE
  8
0
 62
0
 10
152.7
 20
71.5301270189
 30
0.0
 11
157.7
 21
71.5301270189
 31
0.0
  0
LINE
  8
0
 62
0
 10
150.2
 20
67.2
 30
0.0
 11
152.7
 21
71.5301270189
 31
0.0
  0
LINE
  8
0
 62
0
 10
152.7
 20
62.8698729811
 30
0.0
 11
150.2
 21
67.2
 31
0.0
  0
LINE
  8
0
 62
0
 10
157.7
 20
62.8698729811
 30
0.0
 11
152.7
 21
62.8698729811
 31
0.0
  0
LINE
  8
0
 62
0
 10
160.2
 20
67.2
 30
0.0
 11
157.7
 21
62.8698729811
 31
0.0
  0
LINE
  8
0
 62
0
 10
177.6
 20
147.332050808
 30
0.0
 11
174.6
 21
142.135898385
 31
0.0
  0
LINE
  8
0
 62
0
 10
171.6
 20
147.332050808
 30
0.0
 11
177.6
 21
147.332050808
 31
0.0
  0
LINE
  8
0
 62
0
 10
174.6
 20
142.135898385
 30
0.0
 11
171.6
 21
147.332050808
 31
0.0
  0
LINE
  8
0
 62
0
 10
171.6
 20
121.467949192
 30
0.0
 11
174.6
 21
126.664101615
 31
0.0
  0
LINE
  8
0
 62
0
 10
177.6
 20
121.467949192
 30
0.0
 11
171.6
 21
121.467949192
 31
0.0
  0
LINE
  8
0
 62
0
 10
174.6
 20
126.664101615
 30
0.0
 11
177.6
 21
121.467949192
 31
0.0
  0
LINE
  8
0
 62
0
 10
274.6
 20
248.132050808
 30
0.0
 11
271.6
 21
242.935898385
 31
0.0
  0
LINE
  8
0
 62
0
 10
268.6
 20
248.132050808
 30
0.0
 11
274.6
 21
248.132050808
 31
0.0
  0
LINE
  8
0
 62
0
 10
271.6
 20
242.935898385
 30
0.0
 11
268.6
 21
248.132050808
 31
0.0
  0
LINE
  8
0
 62
0
 10
258.9
 20
239.067949192
 30
0.0
 11
261.9
 21
244.264101615
 31
0.0
  0
LINE
  8
0
 62
0
 10
264.9
 20
239.067949192
 30
0.0
 11
258.9
 21
239.067949192
 31
0.0
  0
LINE
  8
0
 62
0
 10
261.9
 20
244.264101615
 30
0.0
 11
264.9
 21
239.067949192
 31
0.0
  0
LINE
  8
0
 62
0
 10
230.3
 20
239.530127019
 30
0.0
 11
235.3
 21
239.530127019
 31
0.0
  0
LINE
  8
0
 62
0
 10
227.8
 20
235.2
 30
0.0
 11
230.3
 21
239.530127019
 31
0.0
  0
LINE
  8
0
 62
0
 10
230.3
 20
230.869872981
 30
0.0
 11
227.8
 21
235.2
 31
0.0
  0
LINE
  8
0
 62
0
 10
235.3
 20
230.869872981
 30
0.0
 11
230.3
 21
230.869872981
 31
0.0
  0
LINE
  8
0
 62
0
 10
237.8
 20
235.2
 30
0.0
 11
235.3
 21
230.869872981
 31
0.0
  0
LINE
  8
0
 62
0
 10
235.3
 20
239.530127019
 30
0.0
 11
237.8
 21
235.2
 31
0.0
  0
LINE
  8
0
 62
0
 10
235.8
 20
248.132050808
 30
0.0
 11
232.8
 21
242.935898385
 31
0.0
  0
LINE
  8
0
 62
0
 10
229.8
 20
248.132050808
 30
0.0
 11
235.8
 21
248.132050808
 31
0.0
  0
LINE
  8
0
 62
0
 10
232.8
 20
242.935898385
 30
0.0
 11
229.8
 21
248.132050808
 31
0.0
  0
LINE
  8
0
 62
0
 10
247.5
 20
218.4
 30
0.0
 11
245.0
 21
214.069872981
 31
0.0
  0
LINE
  8
0
 62
0
 10
245.0
 20
222.730127019
 30
0.0
 11
247.5
 21
218.4
 31
0.0
  0
LINE
  8
0
 62
0
 10
240.0
 20
222.730127019
 30
0.0
 11
245.0
 21
222.730127019
 31
0.0
  0
LINE
  8
0
 62
0
 10
237.5
 20
218.4
 30
0.0
 11
240.0
 21
222.730127019
 31
0.0
  0
LINE
  8
0
 62
0
 10
240.0
 20
214.069872981
 30
0.0
 11
237.5
 21
218.4
 31
0.0
  0
LINE
  8
0
 62
0
 10
245.0
 20
214.069872981
 30
0.0
 11
240.0
 21
214.069872981
 31
0.0
  0
LINE
  8
0
 62
0
 10
252.2
 20
227.464101615
 30
0.0
 11
255.2
 21
222.267949192
 31
0.0
  0
LINE
  8
0
 62
0
 10
249.2
 20
222.267949192
 30
0.0
 11
252.2
 21
227.464101615
 31
0.0
  0
LINE
  8
0
 62
0
 10
255.2
 20
222.267949192
 30
0.0
 11
249.2
 21
222.267949192
 31
0.0
  0
LINE
  8
0
 62
0
 10
257.2
 20
235.2
 30
0.0
 11
254.7
 21
230.869872981
 31
0.0
  0
LINE
  8
0
 62
0
 10
254.7
 20
239.530127019
 30
0.0
 11
257.2
 21
235.2
 31
0.0
  0
LINE
  8
0
 62
0
 10
249.7
 20
239.530127019
 30
0.0
 11
254.7
 21
239.530127019
 31
0.0
  0
LINE
  8
0
 62
0
 10
247.2
 20
235.2
 30
0.0
 11
249.7
 21
239.530127019
 31
0.0
  0
LINE
  8
0
 62
0
 10
249.7
 20
230.869872981
 30
0.0
 11
247.2
 21
235.2
 31
0.0
  0
LINE
  8
0
 62
0
 10
254.7
 20
230.869872981
 30
0.0
 11
249.7
 21
230.869872981
 31
0.0
  0
LINE
  8
0
 62
0
 10
239.5
 20
231.332050808
 30
0.0
 11
245.5
 21
231.332050808
 31
0.0
  0
LINE
  8
0
 62
0
 10
242.5
 20
226.135898385
 30
0.0
 11
239.5
 21
231.332050808
 31
0.0
  0
LINE
  8
0
 62
0
 10
245.5
 20
231.332050808
 30
0.0
 11
242.5
 21
226.135898385
 31
0.0
  0
LINE
  8
0
 62
0
 10
239.5
 20
239.067949192
 30
0.0
 11
242.5
 21
244.264101615
 31
0.0
  0
LINE
  8
0
 62
0
 10
245.5
 20
239.067949192
 30
0.0
 11
239.5
 21
239.067949192
 31
0.0
  0
LINE
  8
0
 62
0
 10
242.5
 20
244.264101615
 30
0.0
 11
245.5
 21
239.067949192
 31
0.0
  0
LINE
  8
0
 62
0
 10
225.6
 20
222.730127019
 30
0.0
 11
228.1
 21
218.4
 31
0.0
  0
LINE
  8
0
 62
0
 10
220.6
 20
222.730127019
 30
0.0
 11
225.6
 21
222.730127019
 31
0.0
  0
LINE
  8
0
 62
0
 10
218.1
 20
218.4
 30
0.0
 11
220.6
 21
222.730127019
 31
0.0
  0
LINE
  8
0
 62
0
 10
220.6
 20
214.069872981
 30
0.0
 11
218.1
 21
218.4
 31
0.0
  0
LINE
  8
0
 62
0
 10
225.6
 20
214.069872981
 30
0.0
 11
220.6
 21
214.069872981
 31
0.0
  0
LINE
  8
0
 62
0
 10
228.1
 20
218.4
 30
0.0
 11
225.6
 21
214.069872981
 31
0.0
  0
LINE
  8
0
 62
0
 10
226.1
 20
197.732050808
 30
0.0
 11
223.1
 21
192.535898385
 31
0.0
  0
LINE
  8
0
 62
0
 10
220.1
 20
197.732050808
 30
0.0
 11
226.1
 21
197.732050808
 31
0.0
  0
LINE
  8
0
 62
0
 10
223.1
 20
192.535898385
 30
0.0
 11
220.1
 21
197.732050808
 31
0.0
  0
LINE
  8
0
 62
0
 10
242.5
 20
210.664101615
 30
0.0
 11
245.5
 21
205.467949192
 31
0.0
  0
LINE
  8
0
 62
0
 10
239.5
 20
205.467949192
 30
0.0
 11
242.5
 21
210.664101615
 31
0.0
  0
LINE
  8
0
 62
0
 10
245.5
 20
205.467949192
 30
0.0
 11
239.5
 21
205.467949192
 31
0.0
  0
LINE
  8
0
 62
0
 10
242.5
 20
192.535898385
 30
0.0
 11
239.5
 21
197.732050808
 31
0.0
  0
LINE
  8
0
 62
0
 10
245.5
 20
197.732050808
 30
0.0
 11
242.5
 21
192.535898385
 31
0.0
  0
LINE
  8
0
 62
0
 10
239.5
 20
197.732050808
 30
0.0
 11
245.5
 21
197.732050808
 31
0.0
  0
LINE
  8
0
 62
0
 10
215.9
 20
205.930127019
 30
0.0
 11
218.4
 21
201.6
 31
0.0
  0
LINE
  8
0
 62
0
 10
210.9
 20
205.930127019
 30
0.0
 11
215.9
 21
205.930127019
 31
0.0
  0
LINE
  8
0
 62
0
 10
208.4
 20
201.6
 30
0.0
 11
210.9
 21
205.930127019
 31
0.0
  0
LINE
  8
0
 62
0
 10
210.9
 20
197.269872981
 30
0.0
 11
208.4
 21
201.6
 31
0.0
  0
LINE
  8
0
 62
0
 10
215.9
 20
197.269872981
 30
0.0
 11
210.9
 21
197.269872981
 31
0.0
  0
LINE
  8
0
 62
0
 10
218.4
 20
201.6
 30
0.0
 11
215.9
 21
197.269872981
 31
0.0
  0
LINE
  8
0
 62
0
 10
213.4
 20
209.335898385
 30
0.0
 11
210.4
 21
214.532050808
 31
0.0
  0
LINE
  8
0
 62
0
 10
216.4
 20
214.532050808
 30
0.0
 11
213.4
 21
209.335898385
 31
0.0
  0
LINE
  8
0
 62
0
 10
210.4
 20
214.532050808
 30
0.0
 11
216.4
 21
214.532050808
 31
0.0
  0
LINE
  8
0
 62
0
 10
216.4
 20
222.267949192
 30
0.0
 11
210.4
 21
222.267949192
 31
0.0
  0
LINE
  8
0
 62
0
 10
213.4
 20
227.464101615
 30
0.0
 11
216.4
 21
222.267949192
 31
0.0
  0
LINE
  8
0
 62
0
 10
210.4
 20
222.267949192
 30
0.0
 11
213.4
 21
227.464101615
 31
0.0
  0
LINE
  8
0
 62
0
 10
206.2
 20
256.330127019
 30
0.0
 11
208.7
 21
252.0
 31
0.0
  0
LINE
  8
0
 62
0
 10
201.2
 20
256.330127019
 30
0.0
 11
206.2
 21
256.330127019
 31
0.0
  0
LINE
  8
0
 62
0
 10
198.7
 20
252.0
 30
0.0
 11
201.2
 21
256.330127019
 31
0.0
  0
LINE
  8
0
 62
0
 10
201.2
 20
247.669872981
 30
0.0
 11
198.7
 21
252.0
 31
0.0
  0
LINE
  8
0
 62
0
 10
206.2
 20
247.669872981
 30
0.0
 11
201.2
 21
247.669872981
 31
0.0
  0
LINE
  8
0
 62
0
 10
208.7
 20
252.0
 30
0.0
 11
206.2
 21
247.669872981
 31
0.0
  0
LINE
  8
0
 62
0
 10
201.2
 20
180.469872981
 30
0.0
 11
198.7
 21
184.8
 31
0.0
  0
LINE
  8
0
 62
0
 10
206.2
 20
180.469872981
 30
0.0
 11
201.2
 21
180.469872981
 31
0.0
  0
LINE
  8
0
 62
0
 10
208.7
 20
184.8
 30
0.0
 11
206.2
 21
180.469872981
 31
0.0
  0
LINE
  8
0
 62
0
 10
206.2
 20
189.130127019
 30
0.0
 11
208.7
 21
184.8
 31
0.0
  0
LINE
  8
0
 62
0
 10
201.2
 20
189.130127019
 30
0.0
 11
206.2
 21
189.130127019
 31
0.0
  0
LINE
  8
0
 62
0
 10
198.7
 20
184.8
 30
0.0
 11
201.2
 21
189.130127019
 31
0.0
  0
LINE
  8
0
 62
0
 10
203.7
 20
210.664101615
 30
0.0
 11
206.7
 21
205.467949192
 31
0.0
  0
LINE
  8
0
 62
0
 10
200.7
 20
205.467949192
 30
0.0
 11
203.7
 21
210.664101615
 31
0.0
  0
LINE
  8
0
 62
0
 10
206.7
 20
205.467949192
 30
0.0
 11
200.7
 21
205.467949192
 31
0.0
  0
LINE
  8
0
 62
0
 10
210.4
 20
188.667949192
 30
0.0
 11
213.4
 21
193.864101615
 31
0.0
  0
LINE
  8
0
 62
0
 10
216.4
 20
188.667949192
 30
0.0
 11
210.4
 21
188.667949192
 31
0.0
  0
LINE
  8
0
 62
0
 10
213.4
 20
193.864101615
 30
0.0
 11
216.4
 21
188.667949192
 31
0.0
  0
LINE
  8
0
 62
0
 10
203.7
 20
244.264101615
 30
0.0
 11
206.7
 21
239.067949192
 31
0.0
  0
LINE
  8
0
 62
0
 10
200.7
 20
239.067949192
 30
0.0
 11
203.7
 21
244.264101615
 31
0.0
  0
LINE
  8
0
 62
0
 10
206.7
 20
239.067949192
 30
0.0
 11
200.7
 21
239.067949192
 31
0.0
  0
LINE
  8
0
 62
0
 10
206.7
 20
231.332050808
 30
0.0
 11
203.7
 21
226.135898385
 31
0.0
  0
LINE
  8
0
 62
0
 10
200.7
 20
231.332050808
 30
0.0
 11
206.7
 21
231.332050808
 31
0.0
  0
LINE
  8
0
 62
0
 10
203.7
 20
226.135898385
 30
0.0
 11
200.7
 21
231.332050808
 31
0.0
  0
LINE
  8
0
 62
0
 10
210.9
 20
230.869872981
 30
0.0
 11
208.4
 21
235.2
 31
0.0
  0
LINE
  8
0
 62
0
 10
215.9
 20
230.869872981
 30
0.0
 11
210.9
 21
230.869872981
 31
0.0
  0
LINE
  8
0
 62
0
 10
218.4
 20
235.2
 30
0.0
 11
215.9
 21
230.869872981
 31
0.0
  0
LINE
  8
0
 62
0
 10
215.9
 20
239.530127019
 30
0.0
 11
218.4
 21
235.2
 31
0.0
  0
LINE
  8
0
 62
0
 10
210.9
 20
239.530127019
 30
0.0
 11
215.9
 21
239.530127019
 31
0.0
  0
LINE
  8
0
 62
0
 10
208.4
 20
235.2
 30
0.0
 11
210.9
 21
239.530127019
 31
0.0
  0
LINE
  8
0
 62
0
 10
210.4
 20
248.132050808
 30
0.0
 11
216.4
 21
248.132050808
 31
0.0
  0
LINE
  8
0
 62
0
 10
213.4
 20
242.935898385
 30
0.0
 11
210.4
 21
248.132050808
 31
0.0
  0
LINE
  8
0
 62
0
 10
216.4
 20
248.132050808
 30
0.0
 11
213.4
 21
242.935898385
 31
0.0
  0
LINE
  8
0
 62
0
 10
232.8
 20
175.735898385
 30
0.0
 11
229.8
 21
180.932050808
 31
0.0
  0
LINE
  8
0
 62
0
 10
235.8
 20
180.932050808
 30
0.0
 11
232.8
 21
175.735898385
 31
0.0
  0
LINE
  8
0
 62
0
 10
229.8
 20
180.932050808
 30
0.0
 11
235.8
 21
180.932050808
 31
0.0
  0
LINE
  8
0
 62
0
 10
197.0
 20
222.267949192
 30
0.0
 11
191.0
 21
222.267949192
 31
0.0
  0
LINE
  8
0
 62
0
 10
194.0
 20
227.464101615
 30
0.0
 11
197.0
 21
222.267949192
 31
0.0
  0
LINE
  8
0
 62
0
 10
191.0
 20
222.267949192
 30
0.0
 11
194.0
 21
227.464101615
 31
0.0
  0
LINE
  8
0
 62
0
 10
191.0
 20
248.132050808
 30
0.0
 11
197.0
 21
248.132050808
 31
0.0
  0
LINE
  8
0
 62
0
 10
194.0
 20
242.935898385
 30
0.0
 11
191.0
 21
248.132050808
 31
0.0
  0
LINE
  8
0
 62
0
 10
197.0
 20
248.132050808
 30
0.0
 11
194.0
 21
242.935898385
 31
0.0
  0
LINE
  8
0
 62
0
 10
194.0
 20
209.335898385
 30
0.0
 11
191.0
 21
214.532050808
 31
0.0
  0
LINE
  8
0
 62
0
 10
197.0
 20
214.532050808
 30
0.0
 11
194.0
 21
209.335898385
 31
0.0
  0
LINE
  8
0
 62
0
 10
191.0
 20
214.532050808
 30
0.0
 11
197.0
 21
214.532050808
 31
0.0
  0
LINE
  8
0
 62
0
 10
197.0
 20
188.667949192
 30
0.0
 11
191.0
 21
188.667949192
 31
0.0
  0
LINE
  8
0
 62
0
 10
194.0
 20
193.864101615
 30
0.0
 11
197.0
 21
188.667949192
 31
0.0
  0
LINE
  8
0
 62
0
 10
191.0
 20
188.667949192
 30
0.0
 11
194.0
 21
193.864101615
 31
0.0
  0
LINE
  8
0
 62
0
 10
189.3
 20
184.8
 30
0.0
 11
186.8
 21
180.469872981
 31
0.0
  0
LINE
  8
0
 62
0
 10
186.8
 20
189.130127019
 30
0.0
 11
189.3
 21
184.8
 31
0.0
  0
LINE
  8
0
 62
0
 10
181.8
 20
189.130127019
 30
0.0
 11
186.8
 21
189.130127019
 31
0.0
  0
LINE
  8
0
 62
0
 10
179.3
 20
184.8
 30
0.0
 11
181.8
 21
189.130127019
 31
0.0
  0
LINE
  8
0
 62
0
 10
181.8
 20
180.469872981
 30
0.0
 11
179.3
 21
184.8
 31
0.0
  0
LINE
  8
0
 62
0
 10
186.8
 20
180.469872981
 30
0.0
 11
181.8
 21
180.469872981
 31
0.0
  0
LINE
  8
0
 62
0
 10
169.6
 20
201.6
 30
0.0
 11
172.1
 21
205.930127019
 31
0.0
  0
LINE
  8
0
 62
0
 10
172.1
 20
197.269872981
 30
0.0
 11
169.6
 21
201.6
 31
0.0
  0
LINE
  8
0
 62
0
 10
177.1
 20
197.269872981
 30
0.0
 11
172.1
 21
197.269872981
 31
0.0
  0
LINE
  8
0
 62
0
 10
179.6
 20
201.6
 30
0.0
 11
177.1
 21
197.269872981
 31
0.0
  0
LINE
  8
0
 62
0
 10
177.1
 20
205.930127019
 30
0.0
 11
179.6
 21
201.6
 31
0.0
  0
LINE
  8
0
 62
0
 10
172.1
 20
205.930127019
 30
0.0
 11
177.1
 21
205.930127019
 31
0.0
  0
LINE
  8
0
 62
0
 10
171.6
 20
255.867949192
 30
0.0
 11
174.6
 21
261.064101615
 31
0.0
  0
LINE
  8
0
 62
0
 10
177.6
 20
255.867949192
 30
0.0
 11
171.6
 21
255.867949192
 31
0.0
  0
LINE
  8
0
 62
0
 10
174.6
 20
261.064101615
 30
0.0
 11
177.6
 21
255.867949192
 31
0.0
  0
LINE
  8
0
 62
0
 10
206.7
 20
96.9320508076
 30
0.0
 11
203.7
 21
91.7358983849
 31
0.0
  0
LINE
  8
0
 62
0
 10
200.7
 20
96.9320508076
 30
0.0
 11
206.7
 21
96.9320508076
 31
0.0
  0
LINE
  8
0
 62
0
 10
203.7
 20
91.7358983849
 30
0.0
 11
200.7
 21
96.9320508076
 31
0.0
  0
LINE
  8
0
 62
0
 10
223.1
 20
109.864101615
 30
0.0
 11
226.1
 21
104.667949192
 31
0.0
  0
LINE
  8
0
 62
0
 10
220.1
 20
104.667949192
 30
0.0
 11
223.1
 21
109.864101615
 31
0.0
  0
LINE
  8
0
 62
0
 10
226.1
 20
104.667949192
 30
0.0
 11
220.1
 21
104.667949192
 31
0.0
  0
LINE
  8
0
 62
0
 10
230.3
 20
105.130127019
 30
0.0
 11
235.3
 21
105.130127019
 31
0.0
  0
LINE
  8
0
 62
0
 10
227.8
 20
100.8
 30
0.0
 11
230.3
 21
105.130127019
 31
0.0
  0
LINE
  8
0
 62
0
 10
230.3
 20
96.4698729811
 30
0.0
 11
227.8
 21
100.8
 31
0.0
  0
LINE
  8
0
 62
0
 10
235.3
 20
96.4698729811
 30
0.0
 11
230.3
 21
96.4698729811
 31
0.0
  0
LINE
  8
0
 62
0
 10
237.8
 20
100.8
 30
0.0
 11
235.3
 21
96.4698729811
 31
0.0
  0
LINE
  8
0
 62
0
 10
235.3
 20
105.130127019
 30
0.0
 11
237.8
 21
100.8
 31
0.0
  0
LINE
  8
0
 62
0
 10
230.3
 20
130.069872981
 30
0.0
 11
227.8
 21
134.4
 31
0.0
  0
LINE
  8
0
 62
0
 10
235.3
 20
130.069872981
 30
0.0
 11
230.3
 21
130.069872981
 31
0.0
  0
LINE
  8
0
 62
0
 10
237.8
 20
134.4
 30
0.0
 11
235.3
 21
130.069872981
 31
0.0
  0
LINE
  8
0
 62
0
 10
235.3
 20
138.730127019
 30
0.0
 11
237.8
 21
134.4
 31
0.0
  0
LINE
  8
0
 62
0
 10
230.3
 20
138.730127019
 30
0.0
 11
235.3
 21
138.730127019
 31
0.0
  0
LINE
  8
0
 62
0
 10
227.8
 20
134.4
 30
0.0
 11
230.3
 21
138.730127019
 31
0.0
  0
LINE
  8
0
 62
0
 10
213.4
 20
126.664101615
 30
0.0
 11
216.4
 21
121.467949192
 31
0.0
  0
LINE
  8
0
 62
0
 10
210.4
 20
121.467949192
 30
0.0
 11
213.4
 21
126.664101615
 31
0.0
  0
LINE
  8
0
 62
0
 10
216.4
 20
121.467949192
 30
0.0
 11
210.4
 21
121.467949192
 31
0.0
  0
LINE
  8
0
 62
0
 10
196.5
 20
96.4698729811
 30
0.0
 11
191.5
 21
96.4698729811
 31
0.0
  0
LINE
  8
0
 62
0
 10
199.0
 20
100.8
 30
0.0
 11
196.5
 21
96.4698729811
 31
0.0
  0
LINE
  8
0
 62
0
 10
196.5
 20
105.130127019
 30
0.0
 11
199.0
 21
100.8
 31
0.0
  0
LINE
  8
0
 62
0
 10
191.5
 20
105.130127019
 30
0.0
 11
196.5
 21
105.130127019
 31
0.0
  0
LINE
  8
0
 62
0
 10
189.0
 20
100.8
 30
0.0
 11
191.5
 21
105.130127019
 31
0.0
  0
LINE
  8
0
 62
0
 10
191.5
 20
96.4698729811
 30
0.0
 11
189.0
 21
100.8
 31
0.0
  0
LINE
  8
0
 62
0
 10
197.0
 20
87.8679491924
 30
0.0
 11
191.0
 21
87.8679491924
 31
0.0
  0
LINE
  8
0
 62
0
 10
194.0
 20
93.0641016151
 30
0.0
 11
197.0
 21
87.8679491924
 31
0.0
  0
LINE
  8
0
 62
0
 10
191.0
 20
87.8679491924
 30
0.0
 11
194.0
 21
93.0641016151
 31
0.0
  0
LINE
  8
0
 62
0
 10
228.1
 20
151.2
 30
0.0
 11
225.6
 21
146.869872981
 31
0.0
  0
LINE
  8
0
 62
0
 10
225.6
 20
155.530127019
 30
0.0
 11
228.1
 21
151.2
 31
0.0
  0
LINE
  8
0
 62
0
 10
220.6
 20
155.530127019
 30
0.0
 11
225.6
 21
155.530127019
 31
0.0
  0
LINE
  8
0
 62
0
 10
218.1
 20
151.2
 30
0.0
 11
220.6
 21
155.530127019
 31
0.0
  0
LINE
  8
0
 62
0
 10
220.6
 20
146.869872981
 30
0.0
 11
218.1
 21
151.2
 31
0.0
  0
LINE
  8
0
 62
0
 10
225.6
 20
146.869872981
 30
0.0
 11
220.6
 21
146.869872981
 31
0.0
  0
LINE
  8
0
 62
0
 10
213.4
 20
142.135898385
 30
0.0
 11
210.4
 21
147.332050808
 31
0.0
  0
LINE
  8
0
 62
0
 10
216.4
 20
147.332050808
 30
0.0
 11
213.4
 21
142.135898385
 31
0.0
  0
LINE
  8
0
 62
0
 10
210.4
 20
147.332050808
 30
0.0
 11
216.4
 21
147.332050808
 31
0.0
  0
LINE
  8
0
 62
0
 10
206.2
 20
155.530127019
 30
0.0
 11
208.7
 21
151.2
 31
0.0
  0
LINE
  8
0
 62
0
 10
201.2
 20
155.530127019
 30
0.0
 11
206.2
 21
155.530127019
 31
0.0
  0
LINE
  8
0
 62
0
 10
198.7
 20
151.2
 30
0.0
 11
201.2
 21
155.530127019
 31
0.0
  0
LINE
  8
0
 62
0
 10
201.2
 20
146.869872981
 30
0.0
 11
198.7
 21
151.2
 31
0.0
  0
LINE
  8
0
 62
0
 10
206.2
 20
146.869872981
 30
0.0
 11
201.2
 21
146.869872981
 31
0.0
  0
LINE
  8
0
 62
0
 10
208.7
 20
151.2
 30
0.0
 11
206.2
 21
146.869872981
 31
0.0
  0
LINE
  8
0
 62
0
 10
191.5
 20
138.730127019
 30
0.0
 11
196.5
 21
138.730127019
 31
0.0
  0
LINE
  8
0
 62
0
 10
189.0
 20
134.4
 30
0.0
 11
191.5
 21
138.730127019
 31
0.0
  0
LINE
  8
0
 62
0
 10
191.5
 20
130.069872981
 30
0.0
 11
189.0
 21
134.4
 31
0.0
  0
LINE
  8
0
 62
0
 10
196.5
 20
130.069872981
 30
0.0
 11
191.5
 21
130.069872981
 31
0.0
  0
LINE
  8
0
 62
0
 10
199.0
 20
134.4
 30
0.0
 11
196.5
 21
130.069872981
 31
0.0
  0
LINE
  8
0
 62
0
 10
196.5
 20
138.730127019
 30
0.0
 11
199.0
 21
134.4
 31
0.0
  0
LINE
  8
0
 62
0
 10
203.7
 20
143.464101615
 30
0.0
 11
206.7
 21
138.267949192
 31
0.0
  0
LINE
  8
0
 62
0
 10
200.7
 20
138.267949192
 30
0.0
 11
203.7
 21
143.464101615
 31
0.0
  0
LINE
  8
0
 62
0
 10
206.7
 20
138.267949192
 30
0.0
 11
200.7
 21
138.267949192
 31
0.0
  0
LINE
  8
0
 62
0
 10
215.9
 20
138.730127019
 30
0.0
 11
218.4
 21
134.4
 31
0.0
  0
LINE
  8
0
 62
0
 10
210.9
 20
138.730127019
 30
0.0
 11
215.9
 21
138.730127019
 31
0.0
  0
LINE
  8
0
 62
0
 10
208.4
 20
134.4
 30
0.0
 11
210.9
 21
138.730127019
 31
0.0
  0
LINE
  8
0
 62
0
 10
210.9
 20
130.069872981
 30
0.0
 11
208.4
 21
134.4
 31
0.0
  0
LINE
  8
0
 62
0
 10
215.9
 20
130.069872981
 30
0.0
 11
210.9
 21
130.069872981
 31
0.0
  0
LINE
  8
0
 62
0
 10
218.4
 20
134.4
 30
0.0
 11
215.9
 21
130.069872981
 31
0.0
  0
LINE
  8
0
 62
0
 10
181.8
 20
146.869872981
 30
0.0
 11
179.3
 21
151.2
 31
0.0
  0
LINE
  8
0
 62
0
 10
186.8
 20
146.869872981
 30
0.0
 11
181.8
 21
146.869872981
 31
0.0
  0
LINE
  8
0
 62
0
 10
189.3
 20
151.2
 30
0.0
 11
186.8
 21
146.869872981
 31
0.0
  0
LINE
  8
0
 62
0
 10
186.8
 20
155.530127019
 30
0.0
 11
189.3
 21
151.2
 31
0.0
  0
LINE
  8
0
 62
0
 10
181.8
 20
155.530127019
 30
0.0
 11
186.8
 21
155.530127019
 31
0.0
  0
LINE
  8
0
 62
0
 10
179.3
 20
151.2
 30
0.0
 11
181.8
 21
155.530127019
 31
0.0
  0
LINE
  8
0
 62
0
 10
181.3
 20
104.667949192
 30
0.0
 11
184.3
 21
109.864101615
 31
0.0
  0
LINE
  8
0
 62
0
 10
187.3
 20
104.667949192
 30
0.0
 11
181.3
 21
104.667949192
 31
0.0
  0
LINE
  8
0
 62
0
 10
184.3
 20
109.864101615
 30
0.0
 11
187.3
 21
104.667949192
 31
0.0
  0
LINE
  8
0
 62
0
 10
181.8
 20
121.930127019
 30
0.0
 11
186.8
 21
121.930127019
 31
0.0
  0
LINE
  8
0
 62
0
 10
179.3
 20
117.6
 30
0.0
 11
181.8
 21
121.930127019
 31
0.0
  0
LINE
  8
0
 62
0
 10
181.8
 20
113.269872981
 30
0.0
 11
179.3
 21
117.6
 31
0.0
  0
LINE
  8
0
 62
0
 10
186.8
 20
113.269872981
 30
0.0
 11
181.8
 21
113.269872981
 31
0.0
  0
LINE
  8
0
 62
0
 10
189.3
 20
117.6
 30
0.0
 11
186.8
 21
113.269872981
 31
0.0
  0
LINE
  8
0
 62
0
 10
186.8
 20
121.930127019
 30
0.0
 11
189.3
 21
117.6
 31
0.0
  0
LINE
  8
0
 62
0
 10
252.2
 20
126.664101615
 30
0.0
 11
255.2
 21
121.467949192
 31
0.0
  0
LINE
  8
0
 62
0
 10
249.2
 20
121.467949192
 30
0.0
 11
252.2
 21
126.664101615
 31
0.0
  0
LINE
  8
0
 62
0
 10
255.2
 20
121.467949192
 30
0.0
 11
249.2
 21
121.467949192
 31
0.0
  0
LINE
  8
0
 62
0
 10
239.5
 20
164.132050808
 30
0.0
 11
245.5
 21
164.132050808
 31
0.0
  0
LINE
  8
0
 62
0
 10
242.5
 20
158.935898385
 30
0.0
 11
239.5
 21
164.132050808
 31
0.0
  0
LINE
  8
0
 62
0
 10
245.5
 20
164.132050808
 30
0.0
 11
242.5
 21
158.935898385
 31
0.0
  0
LINE
  8
0
 62
0
 10
187.3
 20
164.132050808
 30
0.0
 11
184.3
 21
158.935898385
 31
0.0
  0
LINE
  8
0
 62
0
 10
181.3
 20
164.132050808
 30
0.0
 11
187.3
 21
164.132050808
 31
0.0
  0
LINE
  8
0
 62
0
 10
184.3
 20
158.935898385
 30
0.0
 11
181.3
 21
164.132050808
 31
0.0
  0
LINE
  8
0
 62
0
 10
203.7
 20
158.935898385
 30
0.0
 11
200.7
 21
164.132050808
 31
0.0
  0
LINE
  8
0
 62
0
 10
206.7
 20
164.132050808
 30
0.0
 11
203.7
 21
158.935898385
 31
0.0
  0
LINE
  8
0
 62
0
 10
200.7
 20
164.132050808
 30
0.0
 11
206.7
 21
164.132050808
 31
0.0
  0
LINE
  8
0
 62
0
 10
191.0
 20
155.067949192
 30
0.0
 11
194.0
 21
160.264101615
 31
0.0
  0
LINE
  8
0
 62
0
 10
197.0
 20
155.067949192
 30
0.0
 11
191.0
 21
155.067949192
 31
0.0
  0
LINE
  8
0
 62
0
 10
194.0
 20
160.264101615
 30
0.0
 11
197.0
 21
155.067949192
 31
0.0
  0
LINE
  8
0
 62
0
 10
181.3
 20
231.332050808
 30
0.0
 11
187.3
 21
231.332050808
 31
0.0
  0
LINE
  8
0
 62
0
 10
184.3
 20
226.135898385
 30
0.0
 11
181.3
 21
231.332050808
 31
0.0
  0
LINE
  8
0
 62
0
 10
187.3
 20
231.332050808
 30
0.0
 11
184.3
 21
226.135898385
 31
0.0
  0
LINE
  8
0
 62
0
 10
164.9
 20
226.135898385
 30
0.0
 11
161.9
 21
231.332050808
 31
0.0
  0
LINE
  8
0
 62
0
 10
167.9
 20
231.332050808
 30
0.0
 11
164.9
 21
226.135898385
 31
0.0
  0
LINE
  8
0
 62
0
 10
161.9
 20
231.332050808
 30
0.0
 11
167.9
 21
231.332050808
 31
0.0
  0
LINE
  8
0
 62
0
 10
161.9
 20
239.067949192
 30
0.0
 11
164.9
 21
244.264101615
 31
0.0
  0
LINE
  8
0
 62
0
 10
167.9
 20
239.067949192
 30
0.0
 11
161.9
 21
239.067949192
 31
0.0
  0
LINE
  8
0
 62
0
 10
164.9
 20
244.264101615
 30
0.0
 11
167.9
 21
239.067949192
 31
0.0
  0
LINE
  8
0
 62
0
 10
167.9
 20
130.532050808
 30
0.0
 11
164.9
 21
125.335898385
 31
0.0
  0
LINE
  8
0
 62
0
 10
161.9
 20
130.532050808
 30
0.0
 11
167.9
 21
130.532050808
 31
0.0
  0
LINE
  8
0
 62
0
 10
164.9
 20
125.335898385
 30
0.0
 11
161.9
 21
130.532050808
 31
0.0
  0
LINE
  8
0
 62
0
 10
158.2
 20
188.667949192
 30
0.0
 11
152.2
 21
188.667949192
 31
0.0
  0
LINE
  8
0
 62
0
 10
155.2
 20
193.864101615
 30
0.0
 11
158.2
 21
188.667949192
 31
0.0
  0
LINE
  8
0
 62
0
 10
152.2
 20
188.667949192
 30
0.0
 11
155.2
 21
193.864101615
 31
0.0
  0
LINE
  8
0
 62
0
 10
249.2
 20
255.867949192
 30
0.0
 11
252.2
 21
261.064101615
 31
0.0
  0
LINE
  8
0
 62
0
 10
255.2
 20
255.867949192
 30
0.0
 11
249.2
 21
255.867949192
 31
0.0
  0
LINE
  8
0
 62
0
 10
252.2
 20
261.064101615
 30
0.0
 11
255.2
 21
255.867949192
 31
0.0
  0
LINE
  8
0
 62
0
 10
245.5
 20
264.932050808
 30
0.0
 11
242.5
 21
259.735898385
 31
0.0
  0
LINE
  8
0
 62
0
 10
239.5
 20
264.932050808
 30
0.0
 11
245.5
 21
264.932050808
 31
0.0
  0
LINE
  8
0
 62
0
 10
242.5
 20
259.735898385
 30
0.0
 11
239.5
 21
264.932050808
 31
0.0
  0
LINE
  8
0
 62
0
 10
206.7
 20
264.932050808
 30
0.0
 11
203.7
 21
259.735898385
 31
0.0
  0
LINE
  8
0
 62
0
 10
200.7
 20
264.932050808
 30
0.0
 11
206.7
 21
264.932050808
 31
0.0
  0
LINE
  8
0
 62
0
 10
203.7
 20
259.735898385
 30
0.0
 11
200.7
 21
264.932050808
 31
0.0
  0
LINE
  8
0
 62
0
 10
213.4
 20
261.064101615
 30
0.0
 11
216.4
 21
255.867949192
 31
0.0
  0
LINE
  8
0
 62
0
 10
210.4
 20
255.867949192
 30
0.0
 11
213.4
 21
261.064101615
 31
0.0
  0
LINE
  8
0
 62
0
 10
216.4
 20
255.867949192
 30
0.0
 11
210.4
 21
255.867949192
 31
0.0
  0
LINE
  8
0
 62
0
 10
288.0
 20
46.5320508076
 30
0.0
 11
294.0
 21
46.5320508076
 31
0.0
  0
LINE
  8
0
 62
0
 10
291.0
 20
41.3358983849
 30
0.0
 11
288.0
 21
46.5320508076
 31
0.0
  0
LINE
  8
0
 62
0
 10
294.0
 20
46.5320508076
 30
0.0
 11
291.0
 21
41.3358983849
 31
0.0
  0
LINE
  8
0
 62
0
 10
294.0
 20
87.8679491924
 30
0.0
 11
288.0
 21
87.8679491924
 31
0.0
  0
LINE
  8
0
 62
0
 10
291.0
 20
93.0641016151
 30
0.0
 11
294.0
 21
87.8679491924
 31
0.0
  0
LINE
  8
0
 62
0
 10
288.0
 20
87.8679491924
 30
0.0
 11
291.0
 21
93.0641016151
 31
0.0
  0
LINE
  8
0
 62
0
 10
294.0
 20
80.1320508076
 30
0.0
 11
291.0
 21
74.9358983849
 31
0.0
  0
LINE
  8
0
 62
0
 10
288.0
 20
80.1320508076
 30
0.0
 11
294.0
 21
80.1320508076
 31
0.0
  0
LINE
  8
0
 62
0
 10
291.0
 20
74.9358983849
 30
0.0
 11
288.0
 21
80.1320508076
 31
0.0
  0
LINE
  8
0
 62
0
 10
288.5
 20
96.4698729811
 30
0.0
 11
286.0
 21
100.8
 31
0.0
  0
LINE
  8
0
 62
0
 10
293.5
 20
96.4698729811
 30
0.0
 11
288.5
 21
96.4698729811
 31
0.0
  0
LINE
  8
0
 62
0
 10
296.0
 20
100.8
 30
0.0
 11
293.5
 21
96.4698729811
 31
0.0
  0
LINE
  8
0
 62
0
 10
293.5
 20
105.130127019
 30
0.0
 11
296.0
 21
100.8
 31
0.0
  0
LINE
  8
0
 62
0
 10
288.5
 20
105.130127019
 30
0.0
 11
293.5
 21
105.130127019
 31
0.0
  0
LINE
  8
0
 62
0
 10
286.0
 20
100.8
 30
0.0
 11
288.5
 21
105.130127019
 31
0.0
  0
LINE
  8
0
 62
0
 10
291.0
 20
175.735898385
 30
0.0
 11
288.0
 21
180.932050808
 31
0.0
  0
LINE
  8
0
 62
0
 10
294.0
 20
180.932050808
 30
0.0
 11
291.0
 21
175.735898385
 31
0.0
  0
LINE
  8
0
 62
0
 10
288.0
 20
180.932050808
 30
0.0
 11
294.0
 21
180.932050808
 31
0.0
  0
LINE
  8
0
 62
0
 10
294.0
 20
121.467949192
 30
0.0
 11
288.0
 21
121.467949192
 31
0.0
  0
LINE
  8
0
 62
0
 10
291.0
 20
126.664101615
 30
0.0
 11
294.0
 21
121.467949192
 31
0.0
  0
LINE
  8
0
 62
0
 10
288.0
 20
121.467949192
 30
0.0
 11
291.0
 21
126.664101615
 31
0.0
  0
LINE
  8
0
 62
0
 10
284.3
 20
171.867949192
 30
0.0
 11
278.3
 21
171.867949192
 31
0.0
  0
LINE
  8
0
 62
0
 10
281.3
 20
177.064101615
 30
0.0
 11
284.3
 21
171.867949192
 31
0.0
  0
LINE
  8
0
 62
0
 10
278.3
 20
171.867949192
 30
0.0
 11
281.3
 21
177.064101615
 31
0.0
  0
LINE
  8
0
 62
0
 10
278.3
 20
29.7320508076
 30
0.0
 11
284.3
 21
29.7320508076
 31
0.0
  0
LINE
  8
0
 62
0
 10
281.3
 20
24.5358983849
 30
0.0
 11
278.3
 21
29.7320508076
 31
0.0
  0
LINE
  8
0
 62
0
 10
284.3
 20
29.7320508076
 30
0.0
 11
281.3
 21
24.5358983849
 31
0.0
  0
LINE
  8
0
 62
0
 10
291.0
 20
25.8641016151
 30
0.0
 11
294.0
 21
20.6679491924
 31
0.0
  0
LINE
  8
0
 62
0
 10
288.0
 20
20.6679491924
 30
0.0
 11
291.0
 21
25.8641016151
 31
0.0
  0
LINE
  8
0
 62
0
 10
294.0
 20
20.6679491924
 30
0.0
 11
288.0
 21
20.6679491924
 31
0.0
  0
LINE
  8
0
 62
0
 10
286.0
 20
33.6
 30
0.0
 11
288.5
 21
37.9301270189
 31
0.0
  0
LINE
  8
0
 62
0
 10
288.5
 20
29.2698729811
 30
0.0
 11
286.0
 21
33.6
 31
0.0
  0
LINE
  8
0
 62
0
 10
293.5
 20
29.2698729811
 30
0.0
 11
288.5
 21
29.2698729811
 31
0.0
  0
LINE
  8
0
 62
0
 10
296.0
 20
33.6
 30
0.0
 11
293.5
 21
29.2698729811
 31
0.0
  0
LINE
  8
0
 62
0
 10
293.5
 20
37.9301270189
 30
0.0
 11
296.0
 21
33.6
 31
0.0
  0
LINE
  8
0
 62
0
 10
288.5
 20
37.9301270189
 30
0.0
 11
293.5
 21
37.9301270189
 31
0.0
  0
LINE
  8
0
 62
0
 10
278.3
 20
71.0679491924
 30
0.0
 11
281.3
 21
76.2641016151
 31
0.0
  0
LINE
  8
0
 62
0
 10
284.3
 20
71.0679491924
 30
0.0
 11
278.3
 21
71.0679491924
 31
0.0
  0
LINE
  8
0
 62
0
 10
281.3
 20
76.2641016151
 30
0.0
 11
284.3
 21
71.0679491924
 31
0.0
  0
LINE
  8
0
 62
0
 10
286.3
 20
50.4
 30
0.0
 11
283.8
 21
46.0698729811
 31
0.0
  0
LINE
  8
0
 62
0
 10
283.8
 20
54.7301270189
 30
0.0
 11
286.3
 21
50.4
 31
0.0
  0
LINE
  8
0
 62
0
 10
278.8
 20
54.7301270189
 30
0.0
 11
283.8
 21
54.7301270189
 31
0.0
  0
LINE
  8
0
 62
0
 10
276.3
 20
50.4
 30
0.0
 11
278.8
 21
54.7301270189
 31
0.0
  0
LINE
  8
0
 62
0
 10
278.8
 20
46.0698729811
 30
0.0
 11
276.3
 21
50.4
 31
0.0
  0
LINE
  8
0
 62
0
 10
283.8
 20
46.0698729811
 30
0.0
 11
278.8
 21
46.0698729811
 31
0.0
  0
LINE
  8
0
 62
0
 10
281.3
 20
143.464101615
 30
0.0
 11
284.3
 21
138.267949192
 31
0.0
  0
LINE
  8
0
 62
0
 10
278.3
 20
138.267949192
 30
0.0
 11
281.3
 21
143.464101615
 31
0.0
  0
LINE
  8
0
 62
0
 10
284.3
 20
138.267949192
 30
0.0
 11
278.3
 21
138.267949192
 31
0.0
  0
LINE
  8
0
 62
0
 10
261.9
 20
42.6641016151
 30
0.0
 11
264.9
 21
37.4679491924
 31
0.0
  0
LINE
  8
0
 62
0
 10
258.9
 20
37.4679491924
 30
0.0
 11
261.9
 21
42.6641016151
 31
0.0
  0
LINE
  8
0
 62
0
 10
264.9
 20
37.4679491924
 30
0.0
 11
258.9
 21
37.4679491924
 31
0.0
  0
LINE
  8
0
 62
0
 10
274.1
 20
62.8698729811
 30
0.0
 11
269.1
 21
62.8698729811
 31
0.0
  0
LINE
  8
0
 62
0
 10
276.6
 20
67.2
 30
0.0
 11
274.1
 21
62.8698729811
 31
0.0
  0
LINE
  8
0
 62
0
 10
274.1
 20
71.5301270189
 30
0.0
 11
276.6
 21
67.2
 31
0.0
  0
LINE
  8
0
 62
0
 10
269.1
 20
71.5301270189
 30
0.0
 11
274.1
 21
71.5301270189
 31
0.0
  0
LINE
  8
0
 62
0
 10
266.6
 20
67.2
 30
0.0
 11
269.1
 21
71.5301270189
 31
0.0
  0
LINE
  8
0
 62
0
 10
269.1
 20
62.8698729811
 30
0.0
 11
266.6
 21
67.2
 31
0.0
  0
LINE
  8
0
 62
0
 10
268.6
 20
54.2679491924
 30
0.0
 11
271.6
 21
59.4641016151
 31
0.0
  0
LINE
  8
0
 62
0
 10
274.6
 20
54.2679491924
 30
0.0
 11
268.6
 21
54.2679491924
 31
0.0
  0
LINE
  8
0
 62
0
 10
271.6
 20
59.4641016151
 30
0.0
 11
274.6
 21
54.2679491924
 31
0.0
  0
LINE
  8
0
 62
0
 10
268.6
 20
87.8679491924
 30
0.0
 11
271.6
 21
93.0641016151
 31
0.0
  0
LINE
  8
0
 62
0
 10
274.6
 20
87.8679491924
 30
0.0
 11
268.6
 21
87.8679491924
 31
0.0
  0
LINE
  8
0
 62
0
 10
271.6
 20
93.0641016151
 30
0.0
 11
274.6
 21
87.8679491924
 31
0.0
  0
LINE
  8
0
 62
0
 10
258.9
 20
96.9320508076
 30
0.0
 11
264.9
 21
96.9320508076
 31
0.0
  0
LINE
  8
0
 62
0
 10
261.9
 20
91.7358983849
 30
0.0
 11
258.9
 21
96.9320508076
 31
0.0
  0
LINE
  8
0
 62
0
 10
264.9
 20
96.9320508076
 30
0.0
 11
261.9
 21
91.7358983849
 31
0.0
  0
LINE
  8
0
 62
0
 10
264.9
 20
29.7320508076
 30
0.0
 11
261.9
 21
24.5358983849
 31
0.0
  0
LINE
  8
0
 62
0
 10
258.9
 20
29.7320508076
 30
0.0
 11
264.9
 21
29.7320508076
 31
0.0
  0
LINE
  8
0
 62
0
 10
261.9
 20
24.5358983849
 30
0.0
 11
258.9
 21
29.7320508076
 31
0.0
  0
LINE
  8
0
 62
0
 10
257.2
 20
67.2
 30
0.0
 11
254.7
 21
62.8698729811
 31
0.0
  0
LINE
  8
0
 62
0
 10
254.7
 20
71.5301270189
 30
0.0
 11
257.2
 21
67.2
 31
0.0
  0
LINE
  8
0
 62
0
 10
249.7
 20
71.5301270189
 30
0.0
 11
254.7
 21
71.5301270189
 31
0.0
  0
LINE
  8
0
 62
0
 10
247.2
 20
67.2
 30
0.0
 11
249.7
 21
71.5301270189
 31
0.0
  0
LINE
  8
0
 62
0
 10
249.7
 20
62.8698729811
 30
0.0
 11
247.2
 21
67.2
 31
0.0
  0
LINE
  8
0
 62
0
 10
254.7
 20
62.8698729811
 30
0.0
 11
249.7
 21
62.8698729811
 31
0.0
  0
LINE
  8
0
 62
0
 10
249.2
 20
113.732050808
 30
0.0
 11
255.2
 21
113.732050808
 31
0.0
  0
LINE
  8
0
 62
0
 10
252.2
 20
108.535898385
 30
0.0
 11
249.2
 21
113.732050808
 31
0.0
  0
LINE
  8
0
 62
0
 10
255.2
 20
113.732050808
 30
0.0
 11
252.2
 21
108.535898385
 31
0.0
  0
LINE
  8
0
 62
0
 10
249.2
 20
87.8679491924
 30
0.0
 11
252.2
 21
93.0641016151
 31
0.0
  0
LINE
  8
0
 62
0
 10
255.2
 20
87.8679491924
 30
0.0
 11
249.2
 21
87.8679491924
 31
0.0
  0
LINE
  8
0
 62
0
 10
252.2
 20
93.0641016151
 30
0.0
 11
255.2
 21
87.8679491924
 31
0.0
  0
LINE
  8
0
 62
0
 10
247.2
 20
100.8
 30
0.0
 11
249.7
 21
105.130127019
 31
0.0
  0
LINE
  8
0
 62
0
 10
249.7
 20
96.4698729811
 30
0.0
 11
247.2
 21
100.8
 31
0.0
  0
LINE
  8
0
 62
0
 10
254.7
 20
96.4698729811
 30
0.0
 11
249.7
 21
96.4698729811
 31
0.0
  0
LINE
  8
0
 62
0
 10
257.2
 20
100.8
 30
0.0
 11
254.7
 21
96.4698729811
 31
0.0
  0
LINE
  8
0
 62
0
 10
254.7
 20
105.130127019
 30
0.0
 11
257.2
 21
100.8
 31
0.0
  0
LINE
  8
0
 62
0
 10
249.7
 20
105.130127019
 30
0.0
 11
254.7
 21
105.130127019
 31
0.0
  0
LINE
  8
0
 62
0
 10
255.2
 20
155.067949192
 30
0.0
 11
249.2
 21
155.067949192
 31
0.0
  0
LINE
  8
0
 62
0
 10
252.2
 20
160.264101615
 30
0.0
 11
255.2
 21
155.067949192
 31
0.0
  0
LINE
  8
0
 62
0
 10
249.2
 20
155.067949192
 30
0.0
 11
252.2
 21
160.264101615
 31
0.0
  0
LINE
  8
0
 62
0
 10
254.7
 20
29.2698729811
 30
0.0
 11
249.7
 21
29.2698729811
 31
0.0
  0
LINE
  8
0
 62
0
 10
257.2
 20
33.6
 30
0.0
 11
254.7
 21
29.2698729811
 31
0.0
  0
LINE
  8
0
 62
0
 10
254.7
 20
37.9301270189
 30
0.0
 11
257.2
 21
33.6
 31
0.0
  0
LINE
  8
0
 62
0
 10
249.7
 20
37.9301270189
 30
0.0
 11
254.7
 21
37.9301270189
 31
0.0
  0
LINE
  8
0
 62
0
 10
247.2
 20
33.6
 30
0.0
 11
249.7
 21
37.9301270189
 31
0.0
  0
LINE
  8
0
 62
0
 10
249.7
 20
29.2698729811
 30
0.0
 11
247.2
 21
33.6
 31
0.0
  0
LINE
  8
0
 62
0
 10
249.2
 20
46.5320508076
 30
0.0
 11
255.2
 21
46.5320508076
 31
0.0
  0
LINE
  8
0
 62
0
 10
252.2
 20
41.3358983849
 30
0.0
 11
249.2
 21
46.5320508076
 31
0.0
  0
LINE
  8
0
 62
0
 10
255.2
 20
46.5320508076
 30
0.0
 11
252.2
 21
41.3358983849
 31
0.0
  0
LINE
  8
0
 62
0
 10
237.5
 20
50.4
 30
0.0
 11
240.0
 21
54.7301270189
 31
0.0
  0
LINE
  8
0
 62
0
 10
240.0
 20
46.0698729811
 30
0.0
 11
237.5
 21
50.4
 31
0.0
  0
LINE
  8
0
 62
0
 10
245.0
 20
46.0698729811
 30
0.0
 11
240.0
 21
46.0698729811
 31
0.0
  0
LINE
  8
0
 62
0
 10
247.5
 20
50.4
 30
0.0
 11
245.0
 21
46.0698729811
 31
0.0
  0
LINE
  8
0
 62
0
 10
245.0
 20
54.7301270189
 30
0.0
 11
247.5
 21
50.4
 31
0.0
  0
LINE
  8
0
 62
0
 10
240.0
 20
54.7301270189
 30
0.0
 11
245.0
 21
54.7301270189
 31
0.0
  0
LINE
  8
0
 62
0
 10
242.5
 20
76.2641016151
 30
0.0
 11
245.5
 21
71.0679491924
 31
0.0
  0
LINE
  8
0
 62
0
 10
239.5
 20
71.0679491924
 30
0.0
 11
242.5
 21
76.2641016151
 31
0.0
  0
LINE
  8
0
 62
0
 10
245.5
 20
71.0679491924
 30
0.0
 11
239.5
 21
71.0679491924
 31
0.0
  0
LINE
  8
0
 62
0
 10
252.2
 20
74.9358983849
 30
0.0
 11
249.2
 21
80.1320508076
 31
0.0
  0
LINE
  8
0
 62
0
 10
255.2
 20
80.1320508076
 30
0.0
 11
252.2
 21
74.9358983849
 31
0.0
  0
LINE
  8
0
 62
0
 10
249.2
 20
80.1320508076
 30
0.0
 11
255.2
 21
80.1320508076
 31
0.0
  0
LINE
  8
0
 62
0
 10
255.2
 20
20.6679491924
 30
0.0
 11
249.2
 21
20.6679491924
 31
0.0
  0
LINE
  8
0
 62
0
 10
252.2
 20
25.8641016151
 30
0.0
 11
255.2
 21
20.6679491924
 31
0.0
  0
LINE
  8
0
 62
0
 10
249.2
 20
20.6679491924
 30
0.0
 11
252.2
 21
25.8641016151
 31
0.0
  0
LINE
  8
0
 62
0
 10
286.3
 20
16.8
 30
0.0
 11
283.8
 21
12.4698729811
 31
0.0
  0
LINE
  8
0
 62
0
 10
283.8
 20
21.1301270189
 30
0.0
 11
286.3
 21
16.8
 31
0.0
  0
LINE
  8
0
 62
0
 10
278.8
 20
21.1301270189
 30
0.0
 11
283.8
 21
21.1301270189
 31
0.0
  0
LINE
  8
0
 62
0
 10
276.3
 20
16.8
 30
0.0
 11
278.8
 21
21.1301270189
 31
0.0
  0
LINE
  8
0
 62
0
 10
278.8
 20
12.4698729811
 30
0.0
 11
276.3
 21
16.8
 31
0.0
  0
LINE
  8
0
 62
0
 10
283.8
 20
12.4698729811
 30
0.0
 11
278.8
 21
12.4698729811
 31
0.0
  0
LINE
  8
0
 62
0
 10
269.1
 20
29.2698729811
 30
0.0
 11
266.6
 21
33.6
 31
0.0
  0
LINE
  8
0
 62
0
 10
274.1
 20
29.2698729811
 30
0.0
 11
269.1
 21
29.2698729811
 31
0.0
  0
LINE
  8
0
 62
0
 10
276.6
 20
33.6
 30
0.0
 11
274.1
 21
29.2698729811
 31
0.0
  0
LINE
  8
0
 62
0
 10
274.1
 20
37.9301270189
 30
0.0
 11
276.6
 21
33.6
 31
0.0
  0
LINE
  8
0
 62
0
 10
269.1
 20
37.9301270189
 30
0.0
 11
274.1
 21
37.9301270189
 31
0.0
  0
LINE
  8
0
 62
0
 10
266.6
 20
33.6
 30
0.0
 11
269.1
 21
37.9301270189
 31
0.0
  0
LINE
  8
0
 62
0
 10
288.0
 20
12.9320508076
 30
0.0
 11
294.0
 21
12.9320508076
 31
0.0
  0
LINE
  8
0
 62
0
 10
291.0
 20
7.73589838486
 30
0.0
 11
288.0
 21
12.9320508076
 31
0.0
  0
LINE
  8
0
 62
0
 10
294.0
 20
12.9320508076
 30
0.0
 11
291.0
 21
7.73589838486
 31
0.0
  0
LINE
  8
0
 62
0
 10
288.0
 20
54.2679491924
 30
0.0
 11
291.0
 21
59.4641016151
 31
0.0
  0
LINE
  8
0
 62
0
 10
294.0
 20
54.2679491924
 30
0.0
 11
288.0
 21
54.2679491924
 31
0.0
  0
LINE
  8
0
 62
0
 10
291.0
 20
59.4641016151
 30
0.0
 11
294.0
 21
54.2679491924
 31
0.0
  0
LINE
  8
0
 62
0
 10
284.3
 20
37.4679491924
 30
0.0
 11
278.3
 21
37.4679491924
 31
0.0
  0
LINE
  8
0
 62
0
 10
281.3
 20
42.6641016151
 30
0.0
 11
284.3
 21
37.4679491924
 31
0.0
  0
LINE
  8
0
 62
0
 10
278.3
 20
37.4679491924
 30
0.0
 11
281.3
 21
42.6641016151
 31
0.0
  0
LINE
  8
0
 62
0
 10
259.4
 20
46.0698729811
 30
0.0
 11
256.9
 21
50.4
 31
0.0
  0
LINE
  8
0
 62
0
 10
264.4
 20
46.0698729811
 30
0.0
 11
259.4
 21
46.0698729811
 31
0.0
  0
LINE
  8
0
 62
0
 10
266.9
 20
50.4
 30
0.0
 11
264.4
 21
46.0698729811
 31
0.0
  0
LINE
  8
0
 62
0
 10
264.4
 20
54.7301270189
 30
0.0
 11
266.9
 21
50.4
 31
0.0
  0
LINE
  8
0
 62
0
 10
259.4
 20
54.7301270189
 30
0.0
 11
264.4
 21
54.7301270189
 31
0.0
  0
LINE
  8
0
 62
0
 10
256.9
 20
50.4
 30
0.0
 11
259.4
 21
54.7301270189
 31
0.0
  0
LINE
  8
0
 62
0
 10
266.6
 20
100.8
 30
0.0
 11
269.1
 21
105.130127019
 31
0.0
  0
LINE
  8
0
 62
0
 10
269.1
 20
96.4698729811
 30
0.0
 11
266.6
 21
100.8
 31
0.0
  0
LINE
  8
0
 62
0
 10
274.1
 20
96.4698729811
 30
0.0
 11
269.1
 21
96.4698729811
 31
0.0
  0
LINE
  8
0
 62
0
 10
276.6
 20
100.8
 30
0.0
 11
274.1
 21
96.4698729811
 31
0.0
  0
LINE
  8
0
 62
0
 10
274.1
 20
105.130127019
 30
0.0
 11
276.6
 21
100.8
 31
0.0
  0
LINE
  8
0
 62
0
 10
269.1
 20
105.130127019
 30
0.0
 11
274.1
 21
105.130127019
 31
0.0
  0
LINE
  8
0
 62
0
 10
281.3
 20
91.7358983849
 30
0.0
 11
278.3
 21
96.9320508076
 31
0.0
  0
LINE
  8
0
 62
0
 10
284.3
 20
96.9320508076
 30
0.0
 11
281.3
 21
91.7358983849
 31
0.0
  0
LINE
  8
0
 62
0
 10
278.3
 20
96.9320508076
 30
0.0
 11
284.3
 21
96.9320508076
 31
0.0
  0
LINE
  8
0
 62
0
 10
278.8
 20
79.6698729811
 30
0.0
 11
276.3
 21
84.0
 31
0.0
  0
LINE
  8
0
 62
0
 10
283.8
 20
79.6698729811
 30
0.0
 11
278.8
 21
79.6698729811
 31
0.0
  0
LINE
  8
0
 62
0
 10
286.3
 20
84.0
 30
0.0
 11
283.8
 21
79.6698729811
 31
0.0
  0
LINE
  8
0
 62
0
 10
283.8
 20
88.3301270189
 30
0.0
 11
286.3
 21
84.0
 31
0.0
  0
LINE
  8
0
 62
0
 10
278.8
 20
88.3301270189
 30
0.0
 11
283.8
 21
88.3301270189
 31
0.0
  0
LINE
  8
0
 62
0
 10
276.3
 20
84.0
 30
0.0
 11
278.8
 21
88.3301270189
 31
0.0
  0
LINE
  8
0
 62
0
 10
293.5
 20
71.5301270189
 30
0.0
 11
296.0
 21
67.2
 31
0.0
  0
LINE
  8
0
 62
0
 10
288.5
 20
71.5301270189
 30
0.0
 11
293.5
 21
71.5301270189
 31
0.0
  0
LINE
  8
0
 62
0
 10
286.0
 20
67.2
 30
0.0
 11
288.5
 21
71.5301270189
 31
0.0
  0
LINE
  8
0
 62
0
 10
288.5
 20
62.8698729811
 30
0.0
 11
286.0
 21
67.2
 31
0.0
  0
LINE
  8
0
 62
0
 10
293.5
 20
62.8698729811
 30
0.0
 11
288.5
 21
62.8698729811
 31
0.0
  0
LINE
  8
0
 62
0
 10
296.0
 20
67.2
 30
0.0
 11
293.5
 21
62.8698729811
 31
0.0
  0
LINE
  8
0
 62
0
 10
278.3
 20
63.3320508076
 30
0.0
 11
284.3
 21
63.3320508076
 31
0.0
  0
LINE
  8
0
 62
0
 10
281.3
 20
58.1358983849
 30
0.0
 11
278.3
 21
63.3320508076
 31
0.0
  0
LINE
  8
0
 62
0
 10
284.3
 20
63.3320508076
 30
0.0
 11
281.3
 21
58.1358983849
 31
0.0
  0
LINE
  8
0
 62
0
 10
264.9
 20
63.3320508076
 30
0.0
 11
261.9
 21
58.1358983849
 31
0.0
  0
LINE
  8
0
 62
0
 10
258.9
 20
63.3320508076
 30
0.0
 11
264.9
 21
63.3320508076
 31
0.0
  0
LINE
  8
0
 62
0
 10
261.9
 20
58.1358983849
 30
0.0
 11
258.9
 21
63.3320508076
 31
0.0
  0
LINE
  8
0
 62
0
 10
258.9
 20
71.0679491924
 30
0.0
 11
261.9
 21
76.2641016151
 31
0.0
  0
LINE
  8
0
 62
0
 10
264.9
 20
71.0679491924
 30
0.0
 11
258.9
 21
71.0679491924
 31
0.0
  0
LINE
  8
0
 62
0
 10
261.9
 20
76.2641016151
 30
0.0
 11
264.9
 21
71.0679491924
 31
0.0
  0
LINE
  8
0
 62
0
 10
242.5
 20
24.5358983849
 30
0.0
 11
239.5
 21
29.7320508076
 31
0.0
  0
LINE
  8
0
 62
0
 10
245.5
 20
29.7320508076
 30
0.0
 11
242.5
 21
24.5358983849
 31
0.0
  0
LINE
  8
0
 62
0
 10
239.5
 20
29.7320508076
 30
0.0
 11
245.5
 21
29.7320508076
 31
0.0
  0
LINE
  8
0
 62
0
 10
226.1
 20
63.3320508076
 30
0.0
 11
223.1
 21
58.1358983849
 31
0.0
  0
LINE
  8
0
 62
0
 10
220.1
 20
63.3320508076
 30
0.0
 11
226.1
 21
63.3320508076
 31
0.0
  0
LINE
  8
0
 62
0
 10
223.1
 20
58.1358983849
 30
0.0
 11
220.1
 21
63.3320508076
 31
0.0
  0
LINE
  8
0
 62
0
 10
220.1
 20
29.7320508076
 30
0.0
 11
226.1
 21
29.7320508076
 31
0.0
  0
LINE
  8
0
 62
0
 10
223.1
 20
24.5358983849
 30
0.0
 11
220.1
 21
29.7320508076
 31
0.0
  0
LINE
  8
0
 62
0
 10
226.1
 20
29.7320508076
 30
0.0
 11
223.1
 21
24.5358983849
 31
0.0
  0
LINE
  8
0
 62
0
 10
230.3
 20
37.9301270189
 30
0.0
 11
235.3
 21
37.9301270189
 31
0.0
  0
LINE
  8
0
 62
0
 10
227.8
 20
33.6
 30
0.0
 11
230.3
 21
37.9301270189
 31
0.0
  0
LINE
  8
0
 62
0
 10
230.3
 20
29.2698729811
 30
0.0
 11
227.8
 21
33.6
 31
0.0
  0
LINE
  8
0
 62
0
 10
235.3
 20
29.2698729811
 30
0.0
 11
230.3
 21
29.2698729811
 31
0.0
  0
LINE
  8
0
 62
0
 10
237.8
 20
33.6
 30
0.0
 11
235.3
 21
29.2698729811
 31
0.0
  0
LINE
  8
0
 62
0
 10
235.3
 20
37.9301270189
 30
0.0
 11
237.8
 21
33.6
 31
0.0
  0
LINE
  8
0
 62
0
 10
230.3
 20
62.8698729811
 30
0.0
 11
227.8
 21
67.2
 31
0.0
  0
LINE
  8
0
 62
0
 10
235.3
 20
62.8698729811
 30
0.0
 11
230.3
 21
62.8698729811
 31
0.0
  0
LINE
  8
0
 62
0
 10
237.8
 20
67.2
 30
0.0
 11
235.3
 21
62.8698729811
 31
0.0
  0
LINE
  8
0
 62
0
 10
235.3
 20
71.5301270189
 30
0.0
 11
237.8
 21
67.2
 31
0.0
  0
LINE
  8
0
 62
0
 10
230.3
 20
71.5301270189
 30
0.0
 11
235.3
 21
71.5301270189
 31
0.0
  0
LINE
  8
0
 62
0
 10
227.8
 20
67.2
 30
0.0
 11
230.3
 21
71.5301270189
 31
0.0
  0
LINE
  8
0
 62
0
 10
232.8
 20
74.9358983849
 30
0.0
 11
229.8
 21
80.1320508076
 31
0.0
  0
LINE
  8
0
 62
0
 10
235.8
 20
80.1320508076
 30
0.0
 11
232.8
 21
74.9358983849
 31
0.0
  0
LINE
  8
0
 62
0
 10
229.8
 20
80.1320508076
 30
0.0
 11
235.8
 21
80.1320508076
 31
0.0
  0
LINE
  8
0
 62
0
 10
218.4
 20
33.6
 30
0.0
 11
215.9
 21
29.2698729811
 31
0.0
  0
LINE
  8
0
 62
0
 10
215.9
 20
37.9301270189
 30
0.0
 11
218.4
 21
33.6
 31
0.0
  0
LINE
  8
0
 62
0
 10
210.9
 20
37.9301270189
 30
0.0
 11
215.9
 21
37.9301270189
 31
0.0
  0
LINE
  8
0
 62
0
 10
208.4
 20
33.6
 30
0.0
 11
210.9
 21
37.9301270189
 31
0.0
  0
LINE
  8
0
 62
0
 10
210.9
 20
29.2698729811
 30
0.0
 11
208.4
 21
33.6
 31
0.0
  0
LINE
  8
0
 62
0
 10
215.9
 20
29.2698729811
 30
0.0
 11
210.9
 21
29.2698729811
 31
0.0
  0
LINE
  8
0
 62
0
 10
228.1
 20
50.4
 30
0.0
 11
225.6
 21
46.0698729811
 31
0.0
  0
LINE
  8
0
 62
0
 10
225.6
 20
54.7301270189
 30
0.0
 11
228.1
 21
50.4
 31
0.0
  0
LINE
  8
0
 62
0
 10
220.6
 20
54.7301270189
 30
0.0
 11
225.6
 21
54.7301270189
 31
0.0
  0
LINE
  8
0
 62
0
 10
218.1
 20
50.4
 30
0.0
 11
220.6
 21
54.7301270189
 31
0.0
  0
LINE
  8
0
 62
0
 10
220.6
 20
46.0698729811
 30
0.0
 11
218.1
 21
50.4
 31
0.0
  0
LINE
  8
0
 62
0
 10
225.6
 20
46.0698729811
 30
0.0
 11
220.6
 21
46.0698729811
 31
0.0
  0
LINE
  8
0
 62
0
 10
216.4
 20
80.1320508076
 30
0.0
 11
213.4
 21
74.9358983849
 31
0.0
  0
LINE
  8
0
 62
0
 10
210.4
 20
80.1320508076
 30
0.0
 11
216.4
 21
80.1320508076
 31
0.0
  0
LINE
  8
0
 62
0
 10
213.4
 20
74.9358983849
 30
0.0
 11
210.4
 21
80.1320508076
 31
0.0
  0
LINE
  8
0
 62
0
 10
194.0
 20
7.73589838486
 30
0.0
 11
191.0
 21
12.9320508076
 31
0.0
  0
LINE
  8
0
 62
0
 10
197.0
 20
12.9320508076
 30
0.0
 11
194.0
 21
7.73589838486
 31
0.0
  0
LINE
  8
0
 62
0
 10
191.0
 20
12.9320508076
 30
0.0
 11
197.0
 21
12.9320508076
 31
0.0
  0
LINE
  8
0
 62
0
 10
186.8
 20
21.1301270189
 30
0.0
 11
189.3
 21
16.8
 31
0.0
  0
LINE
  8
0
 62
0
 10
181.8
 20
21.1301270189
 30
0.0
 11
186.8
 21
21.1301270189
 31
0.0
  0
LINE
  8
0
 62
0
 10
179.3
 20
16.8
 30
0.0
 11
181.8
 21
21.1301270189
 31
0.0
  0
LINE
  8
0
 62
0
 10
181.8
 20
12.4698729811
 30
0.0
 11
179.3
 21
16.8
 31
0.0
  0
LINE
  8
0
 62
0
 10
186.8
 20
12.4698729811
 30
0.0
 11
181.8
 21
12.4698729811
 31
0.0
  0
LINE
  8
0
 62
0
 10
189.3
 20
16.8
 30
0.0
 11
186.8
 21
12.4698729811
 31
0.0
  0
LINE
  8
0
 62
0
 10
286.3
 20
252.0
 30
0.0
 11
283.8
 21
247.669872981
 31
0.0
  0
LINE
  8
0
 62
0
 10
283.8
 20
256.330127019
 30
0.0
 11
286.3
 21
252.0
 31
0.0
  0
LINE
  8
0
 62
0
 10
278.8
 20
256.330127019
 30
0.0
 11
283.8
 21
256.330127019
 31
0.0
  0
LINE
  8
0
 62
0
 10
276.3
 20
252.0
 30
0.0
 11
278.8
 21
256.330127019
 31
0.0
  0
LINE
  8
0
 62
0
 10
278.8
 20
247.669872981
 30
0.0
 11
276.3
 21
252.0
 31
0.0
  0
LINE
  8
0
 62
0
 10
283.8
 20
247.669872981
 30
0.0
 11
278.8
 21
247.669872981
 31
0.0
  0
LINE
  8
0
 62
0
 10
271.6
 20
261.064101615
 30
0.0
 11
274.6
 21
255.867949192
 31
0.0
  0
LINE
  8
0
 62
0
 10
268.6
 20
255.867949192
 30
0.0
 11
271.6
 21
261.064101615
 31
0.0
  0
LINE
  8
0
 62
0
 10
274.6
 20
255.867949192
 30
0.0
 11
268.6
 21
255.867949192
 31
0.0
  0
LINE
  8
0
 62
0
 10
266.6
 20
235.2
 30
0.0
 11
269.1
 21
239.530127019
 31
0.0
  0
LINE
  8
0
 62
0
 10
269.1
 20
230.869872981
 30
0.0
 11
266.6
 21
235.2
 31
0.0
  0
LINE
  8
0
 62
0
 10
274.1
 20
230.869872981
 30
0.0
 11
269.1
 21
230.869872981
 31
0.0
  0
LINE
  8
0
 62
0
 10
276.6
 20
235.2
 30
0.0
 11
274.1
 21
230.869872981
 31
0.0
  0
LINE
  8
0
 62
0
 10
274.1
 20
239.530127019
 30
0.0
 11
276.6
 21
235.2
 31
0.0
  0
LINE
  8
0
 62
0
 10
269.1
 20
239.530127019
 30
0.0
 11
274.1
 21
239.530127019
 31
0.0
  0
LINE
  8
0
 62
0
 10
278.3
 20
239.067949192
 30
0.0
 11
281.3
 21
244.264101615
 31
0.0
  0
LINE
  8
0
 62
0
 10
284.3
 20
239.067949192
 30
0.0
 11
278.3
 21
239.067949192
 31
0.0
  0
LINE
  8
0
 62
0
 10
281.3
 20
244.264101615
 30
0.0
 11
284.3
 21
239.067949192
 31
0.0
  0
LINE
  8
0
 62
0
 10
278.3
 20
231.332050808
 30
0.0
 11
284.3
 21
231.332050808
 31
0.0
  0
LINE
  8
0
 62
0
 10
281.3
 20
226.135898385
 30
0.0
 11
278.3
 21
231.332050808
 31
0.0
  0
LINE
  8
0
 62
0
 10
284.3
 20
231.332050808
 30
0.0
 11
281.3
 21
226.135898385
 31
0.0
  0
LINE
  8
0
 62
0
 10
293.5
 20
230.869872981
 30
0.0
 11
288.5
 21
230.869872981
 31
0.0
  0
LINE
  8
0
 62
0
 10
296.0
 20
235.2
 30
0.0
 11
293.5
 21
230.869872981
 31
0.0
  0
LINE
  8
0
 62
0
 10
293.5
 20
239.530127019
 30
0.0
 11
296.0
 21
235.2
 31
0.0
  0
LINE
  8
0
 62
0
 10
288.5
 20
239.530127019
 30
0.0
 11
293.5
 21
239.530127019
 31
0.0
  0
LINE
  8
0
 62
0
 10
286.0
 20
235.2
 30
0.0
 11
288.5
 21
239.530127019
 31
0.0
  0
LINE
  8
0
 62
0
 10
288.5
 20
230.869872981
 30
0.0
 11
286.0
 21
235.2
 31
0.0
  0
LINE
  8
0
 62
0
 10
291.0
 20
261.064101615
 30
0.0
 11
294.0
 21
255.867949192
 31
0.0
  0
LINE
  8
0
 62
0
 10
288.0
 20
255.867949192
 30
0.0
 11
291.0
 21
261.064101615
 31
0.0
  0
LINE
  8
0
 62
0
 10
294.0
 20
255.867949192
 30
0.0
 11
288.0
 21
255.867949192
 31
0.0
  0
LINE
  8
0
 62
0
 10
291.0
 20
242.935898385
 30
0.0
 11
288.0
 21
248.132050808
 31
0.0
  0
LINE
  8
0
 62
0
 10
294.0
 20
248.132050808
 30
0.0
 11
291.0
 21
242.935898385
 31
0.0
  0
LINE
  8
0
 62
0
 10
288.0
 20
248.132050808
 30
0.0
 11
294.0
 21
248.132050808
 31
0.0
  0
LINE
  8
0
 62
0
 10
278.3
 20
264.932050808
 30
0.0
 11
284.3
 21
264.932050808
 31
0.0
  0
LINE
  8
0
 62
0
 10
281.3
 20
259.735898385
 30
0.0
 11
278.3
 21
264.932050808
 31
0.0
  0
LINE
  8
0
 62
0
 10
284.3
 20
264.932050808
 30
0.0
 11
281.3
 21
259.735898385
 31
0.0
  0
LINE
  8
0
 62
0
 10
261.9
 20
259.735898385
 30
0.0
 11
258.9
 21
264.932050808
 31
0.0
  0
LINE
  8
0
 62
0
 10
264.9
 20
264.932050808
 30
0.0
 11
261.9
 21
259.735898385
 31
0.0
  0
LINE
  8
0
 62
0
 10
258.9
 20
264.932050808
 30
0.0
 11
264.9
 21
264.932050808
 31
0.0
  0
LINE
  8
0
 62
0
 10
259.4
 20
256.330127019
 30
0.0
 11
264.4
 21
256.330127019
 31
0.0
  0
LINE
  8
0
 62
0
 10
256.9
 20
252.0
 30
0.0
 11
259.4
 21
256.330127019
 31
0.0
  0
LINE
  8
0
 62
0
 10
259.4
 20
247.669872981
 30
0.0
 11
256.9
 21
252.0
 31
0.0
  0
LINE
  8
0
 62
0
 10
264.4
 20
247.669872981
 30
0.0
 11
259.4
 21
247.669872981
 31
0.0
  0
LINE
  8
0
 62
0
 10
266.9
 20
252.0
 30
0.0
 11
264.4
 21
247.669872981
 31
0.0
  0
LINE
  8
0
 62
0
 10
264.4
 20
256.330127019
 30
0.0
 11
266.9
 21
252.0
 31
0.0
  0
LINE
  8
0
 62
0
 10
258.9
 20
231.332050808
 30
0.0
 11
264.9
 21
231.332050808
 31
0.0
  0
LINE
  8
0
 62
0
 10
261.9
 20
226.135898385
 30
0.0
 11
258.9
 21
231.332050808
 31
0.0
  0
LINE
  8
0
 62
0
 10
264.9
 20
231.332050808
 30
0.0
 11
261.9
 21
226.135898385
 31
0.0
  0
LINE
  8
0
 62
0
 10
286.0
 20
201.6
 30
0.0
 11
288.5
 21
205.930127019
 31
0.0
  0
LINE
  8
0
 62
0
 10
288.5
 20
197.269872981
 30
0.0
 11
286.0
 21
201.6
 31
0.0
  0
LINE
  8
0
 62
0
 10
293.5
 20
197.269872981
 30
0.0
 11
288.5
 21
197.269872981
 31
0.0
  0
LINE
  8
0
 62
0
 10
296.0
 20
201.6
 30
0.0
 11
293.5
 21
197.269872981
 31
0.0
  0
LINE
  8
0
 62
0
 10
293.5
 20
205.930127019
 30
0.0
 11
296.0
 21
201.6
 31
0.0
  0
LINE
  8
0
 62
0
 10
288.5
 20
205.930127019
 30
0.0
 11
293.5
 21
205.930127019
 31
0.0
  0
LINE
  8
0
 62
0
 10
274.1
 20
197.269872981
 30
0.0
 11
269.1
 21
197.269872981
 31
0.0
  0
LINE
  8
0
 62
0
 10
276.6
 20
201.6
 30
0.0
 11
274.1
 21
197.269872981
 31
0.0
  0
LINE
  8
0
 62
0
 10
274.1
 20
205.930127019
 30
0.0
 11
276.6
 21
201.6
 31
0.0
  0
LINE
  8
0
 62
0
 10
269.1
 20
205.930127019
 30
0.0
 11
274.1
 21
205.930127019
 31
0.0
  0
LINE
  8
0
 62
0
 10
266.6
 20
201.6
 30
0.0
 11
269.1
 21
205.930127019
 31
0.0
  0
LINE
  8
0
 62
0
 10
269.1
 20
197.269872981
 30
0.0
 11
266.6
 21
201.6
 31
0.0
  0
LINE
  8
0
 62
0
 10
288.0
 20
214.532050808
 30
0.0
 11
294.0
 21
214.532050808
 31
0.0
  0
LINE
  8
0
 62
0
 10
291.0
 20
209.335898385
 30
0.0
 11
288.0
 21
214.532050808
 31
0.0
  0
LINE
  8
0
 62
0
 10
294.0
 20
214.532050808
 30
0.0
 11
291.0
 21
209.335898385
 31
0.0
  0
LINE
  8
0
 62
0
 10
294.0
 20
222.267949192
 30
0.0
 11
288.0
 21
222.267949192
 31
0.0
  0
LINE
  8
0
 62
0
 10
291.0
 20
227.464101615
 30
0.0
 11
294.0
 21
222.267949192
 31
0.0
  0
LINE
  8
0
 62
0
 10
288.0
 20
222.267949192
 30
0.0
 11
291.0
 21
227.464101615
 31
0.0
  0
LINE
  8
0
 62
0
 10
283.8
 20
222.730127019
 30
0.0
 11
286.3
 21
218.4
 31
0.0
  0
LINE
  8
0
 62
0
 10
278.8
 20
222.730127019
 30
0.0
 11
283.8
 21
222.730127019
 31
0.0
  0
LINE
  8
0
 62
0
 10
276.3
 20
218.4
 30
0.0
 11
278.8
 21
222.730127019
 31
0.0
  0
LINE
  8
0
 62
0
 10
278.8
 20
214.069872981
 30
0.0
 11
276.3
 21
218.4
 31
0.0
  0
LINE
  8
0
 62
0
 10
283.8
 20
214.069872981
 30
0.0
 11
278.8
 21
214.069872981
 31
0.0
  0
LINE
  8
0
 62
0
 10
286.3
 20
218.4
 30
0.0
 11
283.8
 21
214.069872981
 31
0.0
  0
LINE
  8
0
 62
0
 10
268.6
 20
214.532050808
 30
0.0
 11
274.6
 21
214.532050808
 31
0.0
  0
LINE
  8
0
 62
0
 10
271.6
 20
209.335898385
 30
0.0
 11
268.6
 21
214.532050808
 31
0.0
  0
LINE
  8
0
 62
0
 10
274.6
 20
214.532050808
 30
0.0
 11
271.6
 21
209.335898385
 31
0.0
  0
LINE
  8
0
 62
0
 10
281.3
 20
210.664101615
 30
0.0
 11
284.3
 21
205.467949192
 31
0.0
  0
LINE
  8
0
 62
0
 10
278.3
 20
205.467949192
 30
0.0
 11
281.3
 21
210.664101615
 31
0.0
  0
LINE
  8
0
 62
0
 10
284.3
 20
205.467949192
 30
0.0
 11
278.3
 21
205.467949192
 31
0.0
  0
LINE
  8
0
 62
0
 10
281.3
 20
192.535898385
 30
0.0
 11
278.3
 21
197.732050808
 31
0.0
  0
LINE
  8
0
 62
0
 10
284.3
 20
197.732050808
 30
0.0
 11
281.3
 21
192.535898385
 31
0.0
  0
LINE
  8
0
 62
0
 10
278.3
 20
197.732050808
 30
0.0
 11
284.3
 21
197.732050808
 31
0.0
  0
LINE
  8
0
 62
0
 10
274.6
 20
222.267949192
 30
0.0
 11
268.6
 21
222.267949192
 31
0.0
  0
LINE
  8
0
 62
0
 10
271.6
 20
227.464101615
 30
0.0
 11
274.6
 21
222.267949192
 31
0.0
  0
LINE
  8
0
 62
0
 10
268.6
 20
222.267949192
 30
0.0
 11
271.6
 21
227.464101615
 31
0.0
  0
LINE
  8
0
 62
0
 10
259.4
 20
214.069872981
 30
0.0
 11
256.9
 21
218.4
 31
0.0
  0
LINE
  8
0
 62
0
 10
264.4
 20
214.069872981
 30
0.0
 11
259.4
 21
214.069872981
 31
0.0
  0
LINE
  8
0
 62
0
 10
266.9
 20
218.4
 30
0.0
 11
264.4
 21
214.069872981
 31
0.0
  0
LINE
  8
0
 62
0
 10
264.4
 20
222.730127019
 30
0.0
 11
266.9
 21
218.4
 31
0.0
  0
LINE
  8
0
 62
0
 10
259.4
 20
222.730127019
 30
0.0
 11
264.4
 21
222.730127019
 31
0.0
  0
LINE
  8
0
 62
0
 10
256.9
 20
218.4
 30
0.0
 11
259.4
 21
222.730127019
 31
0.0
  0
LINE
  8
0
 62
0
 10
264.9
 20
205.467949192
 30
0.0
 11
258.9
 21
205.467949192
 31
0.0
  0
LINE
  8
0
 62
0
 10
261.9
 20
210.664101615
 30
0.0
 11
264.9
 21
205.467949192
 31
0.0
  0
LINE
  8
0
 62
0
 10
258.9
 20
205.467949192
 30
0.0
 11
261.9
 21
210.664101615
 31
0.0
  0
LINE
  8
0
 62
0
 10
261.9
 20
192.535898385
 30
0.0
 11
258.9
 21
197.732050808
 31
0.0
  0
LINE
  8
0
 62
0
 10
264.9
 20
197.732050808
 30
0.0
 11
261.9
 21
192.535898385
 31
0.0
  0
LINE
  8
0
 62
0
 10
258.9
 20
197.732050808
 30
0.0
 11
264.9
 21
197.732050808
 31
0.0
  0
LINE
  8
0
 62
0
 10
269.1
 20
138.730127019
 30
0.0
 11
274.1
 21
138.730127019
 31
0.0
  0
LINE
  8
0
 62
0
 10
266.6
 20
134.4
 30
0.0
 11
269.1
 21
138.730127019
 31
0.0
  0
LINE
  8
0
 62
0
 10
269.1
 20
130.069872981
 30
0.0
 11
266.6
 21
134.4
 31
0.0
  0
LINE
  8
0
 62
0
 10
274.1
 20
130.069872981
 30
0.0
 11
269.1
 21
130.069872981
 31
0.0
  0
LINE
  8
0
 62
0
 10
276.6
 20
134.4
 30
0.0
 11
274.1
 21
130.069872981
 31
0.0
  0
LINE
  8
0
 62
0
 10
274.1
 20
138.730127019
 30
0.0
 11
276.6
 21
134.4
 31
0.0
  0
LINE
  8
0
 62
0
 10
286.0
 20
134.4
 30
0.0
 11
288.5
 21
138.730127019
 31
0.0
  0
LINE
  8
0
 62
0
 10
288.5
 20
130.069872981
 30
0.0
 11
286.0
 21
134.4
 31
0.0
  0
LINE
  8
0
 62
0
 10
293.5
 20
130.069872981
 30
0.0
 11
288.5
 21
130.069872981
 31
0.0
  0
LINE
  8
0
 62
0
 10
296.0
 20
134.4
 30
0.0
 11
293.5
 21
130.069872981
 31
0.0
  0
LINE
  8
0
 62
0
 10
293.5
 20
138.730127019
 30
0.0
 11
296.0
 21
134.4
 31
0.0
  0
LINE
  8
0
 62
0
 10
288.5
 20
138.730127019
 30
0.0
 11
293.5
 21
138.730127019
 31
0.0
  0
LINE
  8
0
 62
0
 10
278.8
 20
155.530127019
 30
0.0
 11
283.8
 21
155.530127019
 31
0.0
  0
LINE
  8
0
 62
0
 10
276.3
 20
151.2
 30
0.0
 11
278.8
 21
155.530127019
 31
0.0
  0
LINE
  8
0
 62
0
 10
278.8
 20
146.869872981
 30
0.0
 11
276.3
 21
151.2
 31
0.0
  0
LINE
  8
0
 62
0
 10
283.8
 20
146.869872981
 30
0.0
 11
278.8
 21
146.869872981
 31
0.0
  0
LINE
  8
0
 62
0
 10
286.3
 20
151.2
 30
0.0
 11
283.8
 21
146.869872981
 31
0.0
  0
LINE
  8
0
 62
0
 10
283.8
 20
155.530127019
 30
0.0
 11
286.3
 21
151.2
 31
0.0
  0
LINE
  8
0
 62
0
 10
271.6
 20
160.264101615
 30
0.0
 11
274.6
 21
155.067949192
 31
0.0
  0
LINE
  8
0
 62
0
 10
268.6
 20
155.067949192
 30
0.0
 11
271.6
 21
160.264101615
 31
0.0
  0
LINE
  8
0
 62
0
 10
274.6
 20
155.067949192
 30
0.0
 11
268.6
 21
155.067949192
 31
0.0
  0
LINE
  8
0
 62
0
 10
288.0
 20
147.332050808
 30
0.0
 11
294.0
 21
147.332050808
 31
0.0
  0
LINE
  8
0
 62
0
 10
291.0
 20
142.135898385
 30
0.0
 11
288.0
 21
147.332050808
 31
0.0
  0
LINE
  8
0
 62
0
 10
294.0
 20
147.332050808
 30
0.0
 11
291.0
 21
142.135898385
 31
0.0
  0
LINE
  8
0
 62
0
 10
294.0
 20
155.067949192
 30
0.0
 11
288.0
 21
155.067949192
 31
0.0
  0
LINE
  8
0
 62
0
 10
291.0
 20
160.264101615
 30
0.0
 11
294.0
 21
155.067949192
 31
0.0
  0
LINE
  8
0
 62
0
 10
288.0
 20
155.067949192
 30
0.0
 11
291.0
 21
160.264101615
 31
0.0
  0
LINE
  8
0
 62
0
 10
258.9
 20
130.532050808
 30
0.0
 11
264.9
 21
130.532050808
 31
0.0
  0
LINE
  8
0
 62
0
 10
261.9
 20
125.335898385
 30
0.0
 11
258.9
 21
130.532050808
 31
0.0
  0
LINE
  8
0
 62
0
 10
264.9
 20
130.532050808
 30
0.0
 11
261.9
 21
125.335898385
 31
0.0
  0
LINE
  8
0
 62
0
 10
258.9
 20
138.267949192
 30
0.0
 11
261.9
 21
143.464101615
 31
0.0
  0
LINE
  8
0
 62
0
 10
264.9
 20
138.267949192
 30
0.0
 11
258.9
 21
138.267949192
 31
0.0
  0
LINE
  8
0
 62
0
 10
261.9
 20
143.464101615
 30
0.0
 11
264.9
 21
138.267949192
 31
0.0
  0
LINE
  8
0
 62
0
 10
268.6
 20
121.467949192
 30
0.0
 11
271.6
 21
126.664101615
 31
0.0
  0
LINE
  8
0
 62
0
 10
274.6
 20
121.467949192
 30
0.0
 11
268.6
 21
121.467949192
 31
0.0
  0
LINE
  8
0
 62
0
 10
271.6
 20
126.664101615
 30
0.0
 11
274.6
 21
121.467949192
 31
0.0
  0
LINE
  8
0
 62
0
 10
247.2
 20
134.4
 30
0.0
 11
249.7
 21
138.730127019
 31
0.0
  0
LINE
  8
0
 62
0
 10
249.7
 20
130.069872981
 30
0.0
 11
247.2
 21
134.4
 31
0.0
  0
LINE
  8
0
 62
0
 10
254.7
 20
130.069872981
 30
0.0
 11
249.7
 21
130.069872981
 31
0.0
  0
LINE
  8
0
 62
0
 10
257.2
 20
134.4
 30
0.0
 11
254.7
 21
130.069872981
 31
0.0
  0
LINE
  8
0
 62
0
 10
254.7
 20
138.730127019
 30
0.0
 11
257.2
 21
134.4
 31
0.0
  0
LINE
  8
0
 62
0
 10
249.7
 20
138.730127019
 30
0.0
 11
254.7
 21
138.730127019
 31
0.0
  0
LINE
  8
0
 62
0
 10
264.4
 20
180.469872981
 30
0.0
 11
259.4
 21
180.469872981
 31
0.0
  0
LINE
  8
0
 62
0
 10
266.9
 20
184.8
 30
0.0
 11
264.4
 21
180.469872981
 31
0.0
  0
LINE
  8
0
 62
0
 10
264.4
 20
189.130127019
 30
0.0
 11
266.9
 21
184.8
 31
0.0
  0
LINE
  8
0
 62
0
 10
259.4
 20
189.130127019
 30
0.0
 11
264.4
 21
189.130127019
 31
0.0
  0
LINE
  8
0
 62
0
 10
256.9
 20
184.8
 30
0.0
 11
259.4
 21
189.130127019
 31
0.0
  0
LINE
  8
0
 62
0
 10
259.4
 20
180.469872981
 30
0.0
 11
256.9
 21
184.8
 31
0.0
  0
LINE
  8
0
 62
0
 10
271.6
 20
193.864101615
 30
0.0
 11
274.6
 21
188.667949192
 31
0.0
  0
LINE
  8
0
 62
0
 10
268.6
 20
188.667949192
 30
0.0
 11
271.6
 21
193.864101615
 31
0.0
  0
LINE
  8
0
 62
0
 10
274.6
 20
188.667949192
 30
0.0
 11
268.6
 21
188.667949192
 31
0.0
  0
LINE
  8
0
 62
0
 10
271.6
 20
175.735898385
 30
0.0
 11
268.6
 21
180.932050808
 31
0.0
  0
LINE
  8
0
 62
0
 10
274.6
 20
180.932050808
 30
0.0
 11
271.6
 21
175.735898385
 31
0.0
  0
LINE
  8
0
 62
0
 10
268.6
 20
180.932050808
 30
0.0
 11
274.6
 21
180.932050808
 31
0.0
  0
LINE
  8
0
 62
0
 10
294.0
 20
188.667949192
 30
0.0
 11
288.0
 21
188.667949192
 31
0.0
  0
LINE
  8
0
 62
0
 10
291.0
 20
193.864101615
 30
0.0
 11
294.0
 21
188.667949192
 31
0.0
  0
LINE
  8
0
 62
0
 10
288.0
 20
188.667949192
 30
0.0
 11
291.0
 21
193.864101615
 31
0.0
  0
LINE
  8
0
 62
0
 10
283.8
 20
189.130127019
 30
0.0
 11
286.3
 21
184.8
 31
0.0
  0
LINE
  8
0
 62
0
 10
278.8
 20
189.130127019
 30
0.0
 11
283.8
 21
189.130127019
 31
0.0
  0
LINE
  8
0
 62
0
 10
276.3
 20
184.8
 30
0.0
 11
278.8
 21
189.130127019
 31
0.0
  0
LINE
  8
0
 62
0
 10
278.8
 20
180.469872981
 30
0.0
 11
276.3
 21
184.8
 31
0.0
  0
LINE
  8
0
 62
0
 10
283.8
 20
180.469872981
 30
0.0
 11
278.8
 21
180.469872981
 31
0.0
  0
LINE
  8
0
 62
0
 10
286.3
 20
184.8
 30
0.0
 11
283.8
 21
180.469872981
 31
0.0
  0
LINE
  8
0
 62
0
 10
296.0
 20
168.0
 30
0.0
 11
293.5
 21
163.669872981
 31
0.0
  0
LINE
  8
0
 62
0
 10
293.5
 20
172.330127019
 30
0.0
 11
296.0
 21
168.0
 31
0.0
  0
LINE
  8
0
 62
0
 10
288.5
 20
172.330127019
 30
0.0
 11
293.5
 21
172.330127019
 31
0.0
  0
LINE
  8
0
 62
0
 10
286.0
 20
168.0
 30
0.0
 11
288.5
 21
172.330127019
 31
0.0
  0
LINE
  8
0
 62
0
 10
288.5
 20
163.669872981
 30
0.0
 11
286.0
 21
168.0
 31
0.0
  0
LINE
  8
0
 62
0
 10
293.5
 20
163.669872981
 30
0.0
 11
288.5
 21
163.669872981
 31
0.0
  0
LINE
  8
0
 62
0
 10
284.3
 20
164.132050808
 30
0.0
 11
281.3
 21
158.935898385
 31
0.0
  0
LINE
  8
0
 62
0
 10
278.3
 20
164.132050808
 30
0.0
 11
284.3
 21
164.132050808
 31
0.0
  0
LINE
  8
0
 62
0
 10
281.3
 20
158.935898385
 30
0.0
 11
278.3
 21
164.132050808
 31
0.0
  0
LINE
  8
0
 62
0
 10
276.6
 20
168.0
 30
0.0
 11
274.1
 21
163.669872981
 31
0.0
  0
LINE
  8
0
 62
0
 10
274.1
 20
172.330127019
 30
0.0
 11
276.6
 21
168.0
 31
0.0
  0
LINE
  8
0
 62
0
 10
269.1
 20
172.330127019
 30
0.0
 11
274.1
 21
172.330127019
 31
0.0
  0
LINE
  8
0
 62
0
 10
266.6
 20
168.0
 30
0.0
 11
269.1
 21
172.330127019
 31
0.0
  0
LINE
  8
0
 62
0
 10
269.1
 20
163.669872981
 30
0.0
 11
266.6
 21
168.0
 31
0.0
  0
LINE
  8
0
 62
0
 10
274.1
 20
163.669872981
 30
0.0
 11
269.1
 21
163.669872981
 31
0.0
  0
LINE
  8
0
 62
0
 10
278.3
 20
130.532050808
 30
0.0
 11
284.3
 21
130.532050808
 31
0.0
  0
LINE
  8
0
 62
0
 10
281.3
 20
125.335898385
 30
0.0
 11
278.3
 21
130.532050808
 31
0.0
  0
LINE
  8
0
 62
0
 10
284.3
 20
130.532050808
 30
0.0
 11
281.3
 21
125.335898385
 31
0.0
  0
LINE
  8
0
 62
0
 10
249.2
 20
214.532050808
 30
0.0
 11
255.2
 21
214.532050808
 31
0.0
  0
LINE
  8
0
 62
0
 10
252.2
 20
209.335898385
 30
0.0
 11
249.2
 21
214.532050808
 31
0.0
  0
LINE
  8
0
 62
0
 10
255.2
 20
214.532050808
 30
0.0
 11
252.2
 21
209.335898385
 31
0.0
  0
LINE
  8
0
 62
0
 10
255.2
 20
188.667949192
 30
0.0
 11
249.2
 21
188.667949192
 31
0.0
  0
LINE
  8
0
 62
0
 10
252.2
 20
193.864101615
 30
0.0
 11
255.2
 21
188.667949192
 31
0.0
  0
LINE
  8
0
 62
0
 10
249.2
 20
188.667949192
 30
0.0
 11
252.2
 21
193.864101615
 31
0.0
  0
LINE
  8
0
 62
0
 10
255.2
 20
147.332050808
 30
0.0
 11
252.2
 21
142.135898385
 31
0.0
  0
LINE
  8
0
 62
0
 10
249.2
 20
147.332050808
 30
0.0
 11
255.2
 21
147.332050808
 31
0.0
  0
LINE
  8
0
 62
0
 10
252.2
 20
142.135898385
 30
0.0
 11
249.2
 21
147.332050808
 31
0.0
  0
LINE
  8
0
 62
0
 10
252.2
 20
175.735898385
 30
0.0
 11
249.2
 21
180.932050808
 31
0.0
  0
LINE
  8
0
 62
0
 10
255.2
 20
180.932050808
 30
0.0
 11
252.2
 21
175.735898385
 31
0.0
  0
LINE
  8
0
 62
0
 10
249.2
 20
180.932050808
 30
0.0
 11
255.2
 21
180.932050808
 31
0.0
  0
LINE
  8
0
 62
0
 10
245.0
 20
247.669872981
 30
0.0
 11
240.0
 21
247.669872981
 31
0.0
  0
LINE
  8
0
 62
0
 10
247.5
 20
252.0
 30
0.0
 11
245.0
 21
247.669872981
 31
0.0
  0
LINE
  8
0
 62
0
 10
245.0
 20
256.330127019
 30
0.0
 11
247.5
 21
252.0
 31
0.0
  0
LINE
  8
0
 62
0
 10
240.0
 20
256.330127019
 30
0.0
 11
245.0
 21
256.330127019
 31
0.0
  0
LINE
  8
0
 62
0
 10
237.5
 20
252.0
 30
0.0
 11
240.0
 21
256.330127019
 31
0.0
  0
LINE
  8
0
 62
0
 10
240.0
 20
247.669872981
 30
0.0
 11
237.5
 21
252.0
 31
0.0
  0
LINE
  8
0
 62
0
 10
229.8
 20
255.867949192
 30
0.0
 11
232.8
 21
261.064101615
 31
0.0
  0
LINE
  8
0
 62
0
 10
235.8
 20
255.867949192
 30
0.0
 11
229.8
 21
255.867949192
 31
0.0
  0
LINE
  8
0
 62
0
 10
232.8
 20
261.064101615
 30
0.0
 11
235.8
 21
255.867949192
 31
0.0
  0
LINE
  8
0
 62
0
 10
232.8
 20
227.464101615
 30
0.0
 11
235.8
 21
222.267949192
 31
0.0
  0
LINE
  8
0
 62
0
 10
229.8
 20
222.267949192
 30
0.0
 11
232.8
 21
227.464101615
 31
0.0
  0
LINE
  8
0
 62
0
 10
235.8
 20
222.267949192
 30
0.0
 11
229.8
 21
222.267949192
 31
0.0
  0
LINE
  8
0
 62
0
 10
252.2
 20
242.935898385
 30
0.0
 11
249.2
 21
248.132050808
 31
0.0
  0
LINE
  8
0
 62
0
 10
255.2
 20
248.132050808
 30
0.0
 11
252.2
 21
242.935898385
 31
0.0
  0
LINE
  8
0
 62
0
 10
249.2
 20
248.132050808
 30
0.0
 11
255.2
 21
248.132050808
 31
0.0
  0
LINE
  8
0
 62
0
 10
223.1
 20
244.264101615
 30
0.0
 11
226.1
 21
239.067949192
 31
0.0
  0
LINE
  8
0
 62
0
 10
220.1
 20
239.067949192
 30
0.0
 11
223.1
 21
244.264101615
 31
0.0
  0
LINE
  8
0
 62
0
 10
226.1
 20
239.067949192
 30
0.0
 11
220.1
 21
239.067949192
 31
0.0
  0
LINE
  8
0
 62
0
 10
208.7
 20
218.4
 30
0.0
 11
206.2
 21
214.069872981
 31
0.0
  0
LINE
  8
0
 62
0
 10
206.2
 20
222.730127019
 30
0.0
 11
208.7
 21
218.4
 31
0.0
  0
LINE
  8
0
 62
0
 10
201.2
 20
222.730127019
 30
0.0
 11
206.2
 21
222.730127019
 31
0.0
  0
LINE
  8
0
 62
0
 10
198.7
 20
218.4
 30
0.0
 11
201.2
 21
222.730127019
 31
0.0
  0
LINE
  8
0
 62
0
 10
201.2
 20
214.069872981
 30
0.0
 11
198.7
 21
218.4
 31
0.0
  0
LINE
  8
0
 62
0
 10
206.2
 20
214.069872981
 30
0.0
 11
201.2
 21
214.069872981
 31
0.0
  0
LINE
  8
0
 62
0
 10
191.5
 20
239.530127019
 30
0.0
 11
196.5
 21
239.530127019
 31
0.0
  0
LINE
  8
0
 62
0
 10
189.0
 20
235.2
 30
0.0
 11
191.5
 21
239.530127019
 31
0.0
  0
LINE
  8
0
 62
0
 10
191.5
 20
230.869872981
 30
0.0
 11
189.0
 21
235.2
 31
0.0
  0
LINE
  8
0
 62
0
 10
196.5
 20
230.869872981
 30
0.0
 11
191.5
 21
230.869872981
 31
0.0
  0
LINE
  8
0
 62
0
 10
199.0
 20
235.2
 30
0.0
 11
196.5
 21
230.869872981
 31
0.0
  0
LINE
  8
0
 62
0
 10
196.5
 20
239.530127019
 30
0.0
 11
199.0
 21
235.2
 31
0.0
  0
LINE
  8
0
 62
0
 10
235.3
 20
163.669872981
 30
0.0
 11
230.3
 21
163.669872981
 31
0.0
  0
LINE
  8
0
 62
0
 10
237.8
 20
168.0
 30
0.0
 11
235.3
 21
163.669872981
 31
0.0
  0
LINE
  8
0
 62
0
 10
235.3
 20
172.330127019
 30
0.0
 11
237.8
 21
168.0
 31
0.0
  0
LINE
  8
0
 62
0
 10
230.3
 20
172.330127019
 30
0.0
 11
235.3
 21
172.330127019
 31
0.0
  0
LINE
  8
0
 62
0
 10
227.8
 20
168.0
 30
0.0
 11
230.3
 21
172.330127019
 31
0.0
  0
LINE
  8
0
 62
0
 10
230.3
 20
163.669872981
 30
0.0
 11
227.8
 21
168.0
 31
0.0
  0
LINE
  8
0
 62
0
 10
245.5
 20
171.867949192
 30
0.0
 11
239.5
 21
171.867949192
 31
0.0
  0
LINE
  8
0
 62
0
 10
242.5
 20
177.064101615
 30
0.0
 11
245.5
 21
171.867949192
 31
0.0
  0
LINE
  8
0
 62
0
 10
239.5
 20
171.867949192
 30
0.0
 11
242.5
 21
177.064101615
 31
0.0
  0
LINE
  8
0
 62
0
 10
210.9
 20
163.669872981
 30
0.0
 11
208.4
 21
168.0
 31
0.0
  0
LINE
  8
0
 62
0
 10
215.9
 20
163.669872981
 30
0.0
 11
210.9
 21
163.669872981
 31
0.0
  0
LINE
  8
0
 62
0
 10
218.4
 20
168.0
 30
0.0
 11
215.9
 21
163.669872981
 31
0.0
  0
LINE
  8
0
 62
0
 10
215.9
 20
172.330127019
 30
0.0
 11
218.4
 21
168.0
 31
0.0
  0
LINE
  8
0
 62
0
 10
210.9
 20
172.330127019
 30
0.0
 11
215.9
 21
172.330127019
 31
0.0
  0
LINE
  8
0
 62
0
 10
208.4
 20
168.0
 30
0.0
 11
210.9
 21
172.330127019
 31
0.0
  0
LINE
  8
0
 62
0
 10
210.4
 20
180.932050808
 30
0.0
 11
216.4
 21
180.932050808
 31
0.0
  0
LINE
  8
0
 62
0
 10
213.4
 20
175.735898385
 30
0.0
 11
210.4
 21
180.932050808
 31
0.0
  0
LINE
  8
0
 62
0
 10
216.4
 20
180.932050808
 30
0.0
 11
213.4
 21
175.735898385
 31
0.0
  0
LINE
  8
0
 62
0
 10
225.6
 20
180.469872981
 30
0.0
 11
220.6
 21
180.469872981
 31
0.0
  0
LINE
  8
0
 62
0
 10
228.1
 20
184.8
 30
0.0
 11
225.6
 21
180.469872981
 31
0.0
  0
LINE
  8
0
 62
0
 10
225.6
 20
189.130127019
 30
0.0
 11
228.1
 21
184.8
 31
0.0
  0
LINE
  8
0
 62
0
 10
220.6
 20
189.130127019
 30
0.0
 11
225.6
 21
189.130127019
 31
0.0
  0
LINE
  8
0
 62
0
 10
218.1
 20
184.8
 30
0.0
 11
220.6
 21
189.130127019
 31
0.0
  0
LINE
  8
0
 62
0
 10
220.6
 20
180.469872981
 30
0.0
 11
218.1
 21
184.8
 31
0.0
  0
LINE
  8
0
 62
0
 10
237.5
 20
184.8
 30
0.0
 11
240.0
 21
189.130127019
 31
0.0
  0
LINE
  8
0
 62
0
 10
240.0
 20
180.469872981
 30
0.0
 11
237.5
 21
184.8
 31
0.0
  0
LINE
  8
0
 62
0
 10
245.0
 20
180.469872981
 30
0.0
 11
240.0
 21
180.469872981
 31
0.0
  0
LINE
  8
0
 62
0
 10
247.5
 20
184.8
 30
0.0
 11
245.0
 21
180.469872981
 31
0.0
  0
LINE
  8
0
 62
0
 10
245.0
 20
189.130127019
 30
0.0
 11
247.5
 21
184.8
 31
0.0
  0
LINE
  8
0
 62
0
 10
240.0
 20
189.130127019
 30
0.0
 11
245.0
 21
189.130127019
 31
0.0
  0
LINE
  8
0
 62
0
 10
257.2
 20
201.6
 30
0.0
 11
254.7
 21
197.269872981
 31
0.0
  0
LINE
  8
0
 62
0
 10
254.7
 20
205.930127019
 30
0.0
 11
257.2
 21
201.6
 31
0.0
  0
LINE
  8
0
 62
0
 10
249.7
 20
205.930127019
 30
0.0
 11
254.7
 21
205.930127019
 31
0.0
  0
LINE
  8
0
 62
0
 10
247.2
 20
201.6
 30
0.0
 11
249.7
 21
205.930127019
 31
0.0
  0
LINE
  8
0
 62
0
 10
249.7
 20
197.269872981
 30
0.0
 11
247.2
 21
201.6
 31
0.0
  0
LINE
  8
0
 62
0
 10
254.7
 20
197.269872981
 30
0.0
 11
249.7
 21
197.269872981
 31
0.0
  0
LINE
  8
0
 62
0
 10
226.1
 20
205.467949192
 30
0.0
 11
220.1
 21
205.467949192
 31
0.0
  0
LINE
  8
0
 62
0
 10
223.1
 20
210.664101615
 30
0.0
 11
226.1
 21
205.467949192
 31
0.0
  0
LINE
  8
0
 62
0
 10
220.1
 20
205.467949192
 30
0.0
 11
223.1
 21
210.664101615
 31
0.0
  0
LINE
  8
0
 62
0
 10
230.3
 20
197.269872981
 30
0.0
 11
227.8
 21
201.6
 31
0.0
  0
LINE
  8
0
 62
0
 10
235.3
 20
197.269872981
 30
0.0
 11
230.3
 21
197.269872981
 31
0.0
  0
LINE
  8
0
 62
0
 10
237.8
 20
201.6
 30
0.0
 11
235.3
 21
197.269872981
 31
0.0
  0
LINE
  8
0
 62
0
 10
235.3
 20
205.930127019
 30
0.0
 11
237.8
 21
201.6
 31
0.0
  0
LINE
  8
0
 62
0
 10
230.3
 20
205.930127019
 30
0.0
 11
235.3
 21
205.930127019
 31
0.0
  0
LINE
  8
0
 62
0
 10
227.8
 20
201.6
 30
0.0
 11
230.3
 21
205.930127019
 31
0.0
  0
LINE
  8
0
 62
0
 10
232.8
 20
142.135898385
 30
0.0
 11
229.8
 21
147.332050808
 31
0.0
  0
LINE
  8
0
 62
0
 10
235.8
 20
147.332050808
 30
0.0
 11
232.8
 21
142.135898385
 31
0.0
  0
LINE
  8
0
 62
0
 10
229.8
 20
147.332050808
 30
0.0
 11
235.8
 21
147.332050808
 31
0.0
  0
LINE
  8
0
 62
0
 10
232.8
 20
160.264101615
 30
0.0
 11
235.8
 21
155.067949192
 31
0.0
  0
LINE
  8
0
 62
0
 10
229.8
 20
155.067949192
 30
0.0
 11
232.8
 21
160.264101615
 31
0.0
  0
LINE
  8
0
 62
0
 10
235.8
 20
155.067949192
 30
0.0
 11
229.8
 21
155.067949192
 31
0.0
  0
LINE
  8
0
 62
0
 10
216.4
 20
155.067949192
 30
0.0
 11
210.4
 21
155.067949192
 31
0.0
  0
LINE
  8
0
 62
0
 10
213.4
 20
160.264101615
 30
0.0
 11
216.4
 21
155.067949192
 31
0.0
  0
LINE
  8
0
 62
0
 10
210.4
 20
155.067949192
 30
0.0
 11
213.4
 21
160.264101615
 31
0.0
  0
LINE
  8
0
 62
0
 10
220.1
 20
164.132050808
 30
0.0
 11
226.1
 21
164.132050808
 31
0.0
  0
LINE
  8
0
 62
0
 10
223.1
 20
158.935898385
 30
0.0
 11
220.1
 21
164.132050808
 31
0.0
  0
LINE
  8
0
 62
0
 10
226.1
 20
164.132050808
 30
0.0
 11
223.1
 21
158.935898385
 31
0.0
  0
LINE
  8
0
 62
0
 10
194.0
 20
142.135898385
 30
0.0
 11
191.0
 21
147.332050808
 31
0.0
  0
LINE
  8
0
 62
0
 10
197.0
 20
147.332050808
 30
0.0
 11
194.0
 21
142.135898385
 31
0.0
  0
LINE
  8
0
 62
0
 10
191.0
 20
147.332050808
 30
0.0
 11
197.0
 21
147.332050808
 31
0.0
  0
LINE
  8
0
 62
0
 10
226.1
 20
130.532050808
 30
0.0
 11
223.1
 21
125.335898385
 31
0.0
  0
LINE
  8
0
 62
0
 10
220.1
 20
130.532050808
 30
0.0
 11
226.1
 21
130.532050808
 31
0.0
  0
LINE
  8
0
 62
0
 10
223.1
 20
125.335898385
 30
0.0
 11
220.1
 21
130.532050808
 31
0.0
  0
LINE
  8
0
 62
0
 10
197.0
 20
121.467949192
 30
0.0
 11
191.0
 21
121.467949192
 31
0.0
  0
LINE
  8
0
 62
0
 10
194.0
 20
126.664101615
 30
0.0
 11
197.0
 21
121.467949192
 31
0.0
  0
LINE
  8
0
 62
0
 10
191.0
 20
121.467949192
 30
0.0
 11
194.0
 21
126.664101615
 31
0.0
  0
LINE
  8
0
 62
0
 10
220.1
 20
264.932050808
 30
0.0
 11
226.1
 21
264.932050808
 31
0.0
  0
LINE
  8
0
 62
0
 10
223.1
 20
259.735898385
 30
0.0
 11
220.1
 21
264.932050808
 31
0.0
  0
LINE
  8
0
 62
0
 10
226.1
 20
264.932050808
 30
0.0
 11
223.1
 21
259.735898385
 31
0.0
  0
LINE
  8
0
 62
0
 10
229.8
 20
113.732050808
 30
0.0
 11
235.8
 21
113.732050808
 31
0.0
  0
LINE
  8
0
 62
0
 10
232.8
 20
108.535898385
 30
0.0
 11
229.8
 21
113.732050808
 31
0.0
  0
LINE
  8
0
 62
0
 10
235.8
 20
113.732050808
 30
0.0
 11
232.8
 21
108.535898385
 31
0.0
  0
LINE
  8
0
 62
0
 10
245.5
 20
104.667949192
 30
0.0
 11
239.5
 21
104.667949192
 31
0.0
  0
LINE
  8
0
 62
0
 10
242.5
 20
109.864101615
 30
0.0
 11
245.5
 21
104.667949192
 31
0.0
  0
LINE
  8
0
 62
0
 10
239.5
 20
104.667949192
 30
0.0
 11
242.5
 21
109.864101615
 31
0.0
  0
LINE
  8
0
 62
0
 10
284.3
 20
104.667949192
 30
0.0
 11
278.3
 21
104.667949192
 31
0.0
  0
LINE
  8
0
 62
0
 10
281.3
 20
109.864101615
 30
0.0
 11
284.3
 21
104.667949192
 31
0.0
  0
LINE
  8
0
 62
0
 10
278.3
 20
104.667949192
 30
0.0
 11
281.3
 21
109.864101615
 31
0.0
  0
LINE
  8
0
 62
0
 10
286.3
 20
117.6
 30
0.0
 11
283.8
 21
113.269872981
 31
0.0
  0
LINE
  8
0
 62
0
 10
283.8
 20
121.930127019
 30
0.0
 11
286.3
 21
117.6
 31
0.0
  0
LINE
  8
0
 62
0
 10
278.8
 20
121.930127019
 30
0.0
 11
283.8
 21
121.930127019
 31
0.0
  0
LINE
  8
0
 62
0
 10
276.3
 20
117.6
 30
0.0
 11
278.8
 21
121.930127019
 31
0.0
  0
LINE
  8
0
 62
0
 10
278.8
 20
113.269872981
 30
0.0
 11
276.3
 21
117.6
 31
0.0
  0
LINE
  8
0
 62
0
 10
283.8
 20
113.269872981
 30
0.0
 11
278.8
 21
113.269872981
 31
0.0
  0
LINE
  8
0
 62
0
 10
291.0
 20
108.535898385
 30
0.0
 11
288.0
 21
113.732050808
 31
0.0
  0
LINE
  8
0
 62
0
 10
294.0
 20
113.732050808
 30
0.0
 11
291.0
 21
108.535898385
 31
0.0
  0
LINE
  8
0
 62
0
 10
288.0
 20
113.732050808
 30
0.0
 11
294.0
 21
113.732050808
 31
0.0
  0
LINE
  8
0
 62
0
 10
284.3
 20
3.86794919243
 30
0.0
 11
278.3
 21
3.86794919243
 31
0.0
  0
LINE
  8
0
 62
0
 10
281.3
 20
9.06410161514
 30
0.0
 11
284.3
 21
3.86794919243
 31
0.0
  0
LINE
  8
0
 62
0
 10
278.3
 20
3.86794919243
 30
0.0
 11
281.3
 21
9.06410161514
 31
0.0
  0
LINE
  8
0
 62
0
 10
223.1
 20
9.06410161514
 30
0.0
 11
226.1
 21
3.86794919243
 31
0.0
  0
LINE
  8
0
 62
0
 10
220.1
 20
3.86794919243
 30
0.0
 11
223.1
 21
9.06410161514
 31
0.0
  0
LINE
  8
0
 62
0
 10
226.1
 20
3.86794919243
 30
0.0
 11
220.1
 21
3.86794919243
 31
0.0
  0
LINE
  8
0
 62
0
 10
203.7
 20
9.06410161514
 30
0.0
 11
206.7
 21
3.86794919243
 31
0.0
  0
LINE
  8
0
 62
0
 10
200.7
 20
3.86794919243
 30
0.0
 11
203.7
 21
9.06410161514
 31
0.0
  0
LINE
  8
0
 62
0
 10
206.7
 20
3.86794919243
 30
0.0
 11
200.7
 21
3.86794919243
 31
0.0
  0
LINE
  8
0
 62
0
 10
0.0
 20
261.064152423
 30
0.0
 11
0.0
 21
300.0
 31
0.0
  0
LINE
  8
0
 62
0
 10
0.0
 20
300.0
 30
0.0
 11
22.4796220799
 21
300.0
 31
0.0
  0
LINE
  8
0
 62
0
 10
0.0
 20
261.064152423
 30
0.0
 11
22.4796220799
 21
300.0
 31
0.0
  0
ENDBLK
  0
ENDSEC
  0
SECTION
  2
ENTITIES
  0
INSERT
  2
CUT
  8
0
 62
0
 10
0.0
 20
0.0
 30
0.0
  0
ENDSEC
  0
EOF
