  0
SECTION
  2
HEADER
  9
$ACADVER
  1
AC1009
  9
$INSBASE
 10
0.0
 20
0.0
 30
0.0
  9
$EXTMIN
 10
0.0
 20
0.0
 30
0.0
  9
$EXTMAX
 10
0.0
 20
0.0
 30
0.0
  0
ENDSEC
  0
SECTION
  2
TABLES
  0
TABLE
  2
VPORT
 70
0
  0
ENDTAB
  0
TABLE
  2
LTYPE
 70
1
  0
LTYPE
  2
CONTINUOUS
 70
0
  3
Solid line
 72
65
 73
0
 40
0.0
  0
ENDTAB
  0
TABLE
  2
LAYER
 70
1
  0
LAYER
  2
0
 70
64
 62
7
  6
continuous
  0
ENDTAB
  0
TABLE
  2
STYLE
 70
1
  0
STYLE
  2
STANDARD
 70
0
 40
0
 41
1.0
 50
0.0
 71
0
 42
1
 3
ARIAL.TTF
 4

  0
ENDTAB
  0
TABLE
  2
VIEW
 70
0
  0
ENDTAB
  0
ENDSEC
  0
SECTION
  2
BLOCKS
  0
ENDSEC
  0
SECTION
  2
ENTITIES
  0
POLYLINE
  8
0
 62
0
 70
0
 66
1
 10
0.0
 20
0.0
 30
0.0
  0
VERTEX
  8
0
 10
183.929166777
 20
3.11710828847
 30
0.0
  0
VERTEX
  8
0
 10
184.795192181
 20
3.63710828847
 30
0.0
  0
VERTEX
  8
0
 10
183.929166777
 20
3.13710828847
 30
0.0
  0
VERTEX
  8
0
 10
177.995535833
 20
6.56289171153
 30
0.0
  0
VERTEX
  8
0
 10
177.129510429
 20
6.06289171153
 30
0.0
  0
VERTEX
  8
0
 10
177.995535833
 20
6.58289171153
 30
0.0
  0
VERTEX
  8
0
 10
177.995535833
 20
12.8171082885
 30
0.0
  0
VERTEX
  8
0
 10
177.129510429
 20
13.3371082885
 30
0.0
  0
VERTEX
  8
0
 10
177.995535833
 20
12.8371082885
 30
0.0
  0
VERTEX
  8
0
 10
183.929166777
 20
16.2628917115
 30
0.0
  0
VERTEX
  8
0
 10
184.795192181
 20
15.7628917115
 30
0.0
  0
VERTEX
  8
0
 10
183.929166777
 20
16.2828917115
 30
0.0
  0
VERTEX
  8
0
 10
183.929166777
 20
22.5171082885
 30
0.0
  0
VERTEX
  8
0
 10
184.795192181
 20
23.0371082885
 30
0.0
  0
VERTEX
  8
0
 10
183.929166777
 20
22.5371082885
 30
0.0
  0
VERTEX
  8
0
 10
177.995535833
 20
25.9628917115
 30
0.0
  0
VERTEX
  8
0
 10
177.129510429
 20
25.4628917115
 30
0.0
  0
VERTEX
  8
0
 10
177.995535833
 20
25.9828917115
 30
0.0
  0
VERTEX
  8
0
 10
177.995535833
 20
32.2171082885
 30
0.0
  0
VERTEX
  8
0
 10
177.129510429
 20
32.7371082885
 30
0.0
  0
VERTEX
  8
0
 10
177.995535833
 20
32.2371082885
 30
0.0
  0
VERTEX
  8
0
 10
183.929166777
 20
35.6628917115
 30
0.0
  0
VERTEX
  8
0
 10
184.795192181
 20
35.1628917115
 30
0.0
  0
VERTEX
  8
0
 10
183.929166777
 20
35.6828917115
 30
0.0
  0
VERTEX
  8
0
 10
183.929166777
 20
41.9171082885
 30
0.0
  0
VERTEX
  8
0
 10
184.795192181
 20
42.4371082885
 30
0.0
  0
VERTEX
  8
0
 10
183.929166777
 20
41.9371082885
 30
0.0
  0
VERTEX
  8
0
 10
177.995535833
 20
45.3628917115
 30
0.0
  0
VERTEX
  8
0
 10
177.129510429
 20
44.8628917115
 30
0.0
  0
VERTEX
  8
0
 10
177.995535833
 20
45.3828917115
 30
0.0
  0
VERTEX
  8
0
 10
177.995535833
 20
51.6171082885
 30
0.0
  0
VERTEX
  8
0
 10
177.129510429
 20
52.1371082885
 30
0.0
  0
VERTEX
  8
0
 10
177.995535833
 20
51.6371082885
 30
0.0
  0
VERTEX
  8
0
 10
183.929166777
 20
55.0628917115
 30
0.0
  0
VERTEX
  8
0
 10
184.795192181
 20
54.5628917115
 30
0.0
  0
VERTEX
  8
0
 10
183.929166777
 20
55.0828917115
 30
0.0
  0
VERTEX
  8
0
 10
183.929166777
 20
61.3171082885
 30
0.0
  0
VERTEX
  8
0
 10
184.795192181
 20
61.8371082885
 30
0.0
  0
VERTEX
  8
0
 10
183.929166777
 20
61.3371082885
 30
0.0
  0
VERTEX
  8
0
 10
177.995535833
 20
64.7628917115
 30
0.0
  0
VERTEX
  8
0
 10
177.129510429
 20
64.2628917115
 30
0.0
  0
VERTEX
  8
0
 10
177.995535833
 20
64.7828917115
 30
0.0
  0
VERTEX
  8
0
 10
177.995535833
 20
71.0171082885
 30
0.0
  0
VERTEX
  8
0
 10
177.129510429
 20
71.5371082885
 30
0.0
  0
VERTEX
  8
0
 10
177.995535833
 20
71.0371082885
 30
0.0
  0
VERTEX
  8
0
 10
183.929166777
 20
74.4628917115
 30
0.0
  0
VERTEX
  8
0
 10
184.795192181
 20
73.9628917115
 30
0.0
  0
VERTEX
  8
0
 10
183.929166777
 20
74.4828917115
 30
0.0
  0
VERTEX
  8
0
 10
183.929166777
 20
80.7171082885
 30
0.0
  0
VERTEX
  8
0
 10
184.795192181
 20
81.2371082885
 30
0.0
  0
VERTEX
  8
0
 10
183.929166777
 20
80.7371082885
 30
0.0
  0
VERTEX
  8
0
 10
177.995535833
 20
84.1628917115
 30
0.0
  0
VERTEX
  8
0
 10
177.129510429
 20
83.6628917115
 30
0.0
  0
VERTEX
  8
0
 10
177.995535833
 20
84.1828917115
 30
0.0
  0
VERTEX
  8
0
 10
177.995535833
 20
90.4171082885
 30
0.0
  0
VERTEX
  8
0
 10
177.129510429
 20
90.9371082885
 30
0.0
  0
VERTEX
  8
0
 10
177.995535833
 20
90.4371082885
 30
0.0
  0
VERTEX
  8
0
 10
183.929166777
 20
93.8628917115
 30
0.0
  0
VERTEX
  8
0
 10
184.795192181
 20
93.3628917115
 30
0.0
  0
VERTEX
  8
0
 10
183.929166777
 20
93.8828917115
 30
0.0
  0
VERTEX
  8
0
 10
183.929166777
 20
100.117108288
 30
0.0
  0
VERTEX
  8
0
 10
184.795192181
 20
100.637108288
 30
0.0
  0
VERTEX
  8
0
 10
183.929166777
 20
100.137108288
 30
0.0
  0
VERTEX
  8
0
 10
177.995535833
 20
103.562891712
 30
0.0
  0
VERTEX
  8
0
 10
177.129510429
 20
103.062891712
 30
0.0
  0
VERTEX
  8
0
 10
177.995535833
 20
103.582891712
 30
0.0
  0
VERTEX
  8
0
 10
177.995535833
 20
109.817108288
 30
0.0
  0
VERTEX
  8
0
 10
177.129510429
 20
110.337108288
 30
0.0
  0
VERTEX
  8
0
 10
177.995535833
 20
109.837108288
 30
0.0
  0
VERTEX
  8
0
 10
183.929166777
 20
113.262891712
 30
0.0
  0
VERTEX
  8
0
 10
184.795192181
 20
112.762891712
 30
0.0
  0
VERTEX
  8
0
 10
183.929166777
 20
113.282891712
 30
0.0
  0
VERTEX
  8
0
 10
183.929166777
 20
119.517108288
 30
0.0
  0
VERTEX
  8
0
 10
184.795192181
 20
120.037108288
 30
0.0
  0
VERTEX
  8
0
 10
183.929166777
 20
119.537108288
 30
0.0
  0
VERTEX
  8
0
 10
177.995535833
 20
122.962891712
 30
0.0
  0
VERTEX
  8
0
 10
177.129510429
 20
122.462891712
 30
0.0
  0
VERTEX
  8
0
 10
177.995535833
 20
122.982891712
 30
0.0
  0
VERTEX
  8
0
 10
177.995535833
 20
129.217108288
 30
0.0
  0
VERTEX
  8
0
 10
177.129510429
 20
129.737108288
 30
0.0
  0
VERTEX
  8
0
 10
177.995535833
 20
129.237108288
 30
0.0
  0
VERTEX
  8
0
 10
183.929166777
 20
132.662891712
 30
0.0
  0
VERTEX
  8
0
 10
184.795192181
 20
132.162891712
 30
0.0
  0
VERTEX
  8
0
 10
183.929166777
 20
132.682891712
 30
0.0
  0
VERTEX
  8
0
 10
183.929166777
 20
138.917108288
 30
0.0
  0
VERTEX
  8
0
 10
184.795192181
 20
139.437108288
 30
0.0
  0
VERTEX
  8
0
 10
183.929166777
 20
138.937108288
 30
0.0
  0
VERTEX
  8
0
 10
177.995535833
 20
142.362891712
 30
0.0
  0
VERTEX
  8
0
 10
177.129510429
 20
141.862891712
 30
0.0
  0
VERTEX
  8
0
 10
177.995535833
 20
142.382891712
 30
0.0
  0
VERTEX
  8
0
 10
177.995535833
 20
148.617108288
 30
0.0
  0
VERTEX
  8
0
 10
177.129510429
 20
149.137108288
 30
0.0
  0
VERTEX
  8
0
 10
177.995535833
 20
148.637108288
 30
0.0
  0
VERTEX
  8
0
 10
183.929166777
 20
152.062891712
 30
0.0
  0
VERTEX
  8
0
 10
184.795192181
 20
151.562891712
 30
0.0
  0
VERTEX
  8
0
 10
183.929166777
 20
152.082891712
 30
0.0
  0
VERTEX
  8
0
 10
183.929166777
 20
158.317108288
 30
0.0
  0
VERTEX
  8
0
 10
184.795192181
 20
158.837108288
 30
0.0
  0
VERTEX
  8
0
 10
183.929166777
 20
158.337108288
 30
0.0
  0
VERTEX
  8
0
 10
177.995535833
 20
161.762891712
 30
0.0
  0
VERTEX
  8
0
 10
177.129510429
 20
161.262891712
 30
0.0
  0
VERTEX
  8
0
 10
177.995535833
 20
161.782891712
 30
0.0
  0
VERTEX
  8
0
 10
169.335281795
 20
176.762891712
 30
0.0
  0
VERTEX
  8
0
 10
163.401650851
 20
173.337108288
 30
0.0
  0
VERTEX
  8
0
 10
170.329854081
 20
161.337108288
 30
0.0
  0
SEQEND
  8
0
  0
POLYLINE
  8
0
 62
0
 70
0
 66
1
 10
0.0
 20
0.0
 30
0.0
  0
VERTEX
  8
0
 10
87.4328301923
 20
143.0
 30
0.0
  0
VERTEX
  8
0
 10
87.4328301923
 20
148.5
 30
0.0
  0
VERTEX
  8
0
 10
92.628982615
 20
145.5
 30
0.0
  0
VERTEX
  8
0
 10
87.4328301923
 20
142.5
 30
0.0
  0
SEQEND
  8
0
  0
POLYLINE
  8
0
 62
0
 70
0
 66
1
 10
0.0
 20
0.0
 30
0.0
  0
VERTEX
  8
0
 10
96.4963365851
 20
133.3
 30
0.0
  0
VERTEX
  8
0
 10
96.4963365851
 20
138.8
 30
0.0
  0
VERTEX
  8
0
 10
91.3001841624
 20
135.8
 30
0.0
  0
VERTEX
  8
0
 10
96.4963365851
 20
132.8
 30
0.0
  0
SEQEND
  8
0
  0
POLYLINE
  8
0
 62
0
 70
0
 66
1
 10
0.0
 20
0.0
 30
0.0
  0
VERTEX
  8
0
 10
100.864583389
 20
3.11710828847
 30
0.0
  0
VERTEX
  8
0
 10
101.730608792
 20
3.63710828847
 30
0.0
  0
VERTEX
  8
0
 10
100.864583389
 20
3.13710828847
 30
0.0
  0
VERTEX
  8
0
 10
94.9309524442
 20
6.56289171153
 30
0.0
  0
VERTEX
  8
0
 10
94.0649270404
 20
6.06289171153
 30
0.0
  0
VERTEX
  8
0
 10
94.9309524442
 20
6.58289171153
 30
0.0
  0
VERTEX
  8
0
 10
94.9309524442
 20
12.8171082885
 30
0.0
  0
VERTEX
  8
0
 10
94.0649270404
 20
13.3371082885
 30
0.0
  0
VERTEX
  8
0
 10
94.9309524442
 20
12.8371082885
 30
0.0
  0
VERTEX
  8
0
 10
100.864583389
 20
16.2628917115
 30
0.0
  0
VERTEX
  8
0
 10
101.730608792
 20
15.7628917115
 30
0.0
  0
VERTEX
  8
0
 10
100.864583389
 20
16.2828917115
 30
0.0
  0
VERTEX
  8
0
 10
100.864583389
 20
22.5171082885
 30
0.0
  0
VERTEX
  8
0
 10
101.730608792
 20
23.0371082885
 30
0.0
  0
VERTEX
  8
0
 10
100.864583389
 20
22.5371082885
 30
0.0
  0
VERTEX
  8
0
 10
94.9309524442
 20
25.9628917115
 30
0.0
  0
VERTEX
  8
0
 10
94.0649270404
 20
25.4628917115
 30
0.0
  0
VERTEX
  8
0
 10
94.9309524442
 20
25.9828917115
 30
0.0
  0
VERTEX
  8
0
 10
94.9309524442
 20
32.2171082885
 30
0.0
  0
VERTEX
  8
0
 10
94.0649270404
 20
32.7371082885
 30
0.0
  0
VERTEX
  8
0
 10
94.9309524442
 20
32.2371082885
 30
0.0
  0
VERTEX
  8
0
 10
100.864583389
 20
35.6628917115
 30
0.0
  0
VERTEX
  8
0
 10
101.730608792
 20
35.1628917115
 30
0.0
  0
VERTEX
  8
0
 10
100.864583389
 20
35.6828917115
 30
0.0
  0
VERTEX
  8
0
 10
100.864583389
 20
41.9171082885
 30
0.0
  0
VERTEX
  8
0
 10
101.730608792
 20
42.4371082885
 30
0.0
  0
VERTEX
  8
0
 10
100.864583389
 20
41.9371082885
 30
0.0
  0
VERTEX
  8
0
 10
94.9309524442
 20
45.3628917115
 30
0.0
  0
VERTEX
  8
0
 10
94.0649270404
 20
44.8628917115
 30
0.0
  0
VERTEX
  8
0
 10
94.9309524442
 20
45.3828917115
 30
0.0
  0
VERTEX
  8
0
 10
94.9309524442
 20
51.6171082885
 30
0.0
  0
VERTEX
  8
0
 10
94.0649270404
 20
52.1371082885
 30
0.0
  0
VERTEX
  8
0
 10
94.9309524442
 20
51.6371082885
 30
0.0
  0
VERTEX
  8
0
 10
100.864583389
 20
55.0628917115
 30
0.0
  0
VERTEX
  8
0
 10
101.730608792
 20
54.5628917115
 30
0.0
  0
VERTEX
  8
0
 10
100.864583389
 20
55.0828917115
 30
0.0
  0
VERTEX
  8
0
 10
100.864583389
 20
61.3171082885
 30
0.0
  0
VERTEX
  8
0
 10
101.730608792
 20
61.8371082885
 30
0.0
  0
VERTEX
  8
0
 10
100.864583389
 20
61.3371082885
 30
0.0
  0
VERTEX
  8
0
 10
94.9309524442
 20
64.7628917115
 30
0.0
  0
VERTEX
  8
0
 10
94.0649270404
 20
64.2628917115
 30
0.0
  0
VERTEX
  8
0
 10
94.9309524442
 20
64.7828917115
 30
0.0
  0
VERTEX
  8
0
 10
94.9309524442
 20
71.0171082885
 30
0.0
  0
VERTEX
  8
0
 10
94.0649270404
 20
71.5371082885
 30
0.0
  0
VERTEX
  8
0
 10
94.9309524442
 20
71.0371082885
 30
0.0
  0
VERTEX
  8
0
 10
100.864583389
 20
74.4628917115
 30
0.0
  0
VERTEX
  8
0
 10
101.730608792
 20
73.9628917115
 30
0.0
  0
VERTEX
  8
0
 10
100.864583389
 20
74.4828917115
 30
0.0
  0
VERTEX
  8
0
 10
100.864583389
 20
80.7171082885
 30
0.0
  0
VERTEX
  8
0
 10
101.730608792
 20
81.2371082885
 30
0.0
  0
VERTEX
  8
0
 10
100.864583389
 20
80.7371082885
 30
0.0
  0
VERTEX
  8
0
 10
94.9309524442
 20
84.1628917115
 30
0.0
  0
VERTEX
  8
0
 10
94.0649270404
 20
83.6628917115
 30
0.0
  0
VERTEX
  8
0
 10
94.9309524442
 20
84.1828917115
 30
0.0
  0
VERTEX
  8
0
 10
94.9309524442
 20
90.4171082885
 30
0.0
  0
VERTEX
  8
0
 10
94.0649270404
 20
90.9371082885
 30
0.0
  0
VERTEX
  8
0
 10
94.9309524442
 20
90.4371082885
 30
0.0
  0
VERTEX
  8
0
 10
100.864583389
 20
93.8628917115
 30
0.0
  0
VERTEX
  8
0
 10
101.730608792
 20
93.3628917115
 30
0.0
  0
VERTEX
  8
0
 10
100.864583389
 20
93.8828917115
 30
0.0
  0
VERTEX
  8
0
 10
100.864583389
 20
100.117108288
 30
0.0
  0
VERTEX
  8
0
 10
101.730608792
 20
100.637108288
 30
0.0
  0
VERTEX
  8
0
 10
100.864583389
 20
100.137108288
 30
0.0
  0
VERTEX
  8
0
 10
94.9309524442
 20
103.562891712
 30
0.0
  0
VERTEX
  8
0
 10
94.0649270404
 20
103.062891712
 30
0.0
  0
VERTEX
  8
0
 10
94.9309524442
 20
103.582891712
 30
0.0
  0
VERTEX
  8
0
 10
94.9309524442
 20
109.817108288
 30
0.0
  0
VERTEX
  8
0
 10
94.0649270404
 20
110.337108288
 30
0.0
  0
VERTEX
  8
0
 10
94.9309524442
 20
109.837108288
 30
0.0
  0
VERTEX
  8
0
 10
100.864583389
 20
113.262891712
 30
0.0
  0
VERTEX
  8
0
 10
101.730608792
 20
112.762891712
 30
0.0
  0
VERTEX
  8
0
 10
100.864583389
 20
113.282891712
 30
0.0
  0
VERTEX
  8
0
 10
100.864583389
 20
119.517108288
 30
0.0
  0
VERTEX
  8
0
 10
101.730608792
 20
120.037108288
 30
0.0
  0
VERTEX
  8
0
 10
100.864583389
 20
119.537108288
 30
0.0
  0
VERTEX
  8
0
 10
94.9309524442
 20
122.962891712
 30
0.0
  0
VERTEX
  8
0
 10
94.0649270404
 20
122.462891712
 30
0.0
  0
VERTEX
  8
0
 10
94.9309524442
 20
122.982891712
 30
0.0
  0
VERTEX
  8
0
 10
94.9309524442
 20
129.217108288
 30
0.0
  0
VERTEX
  8
0
 10
94.0649270404
 20
129.737108288
 30
0.0
  0
VERTEX
  8
0
 10
94.9309524442
 20
129.237108288
 30
0.0
  0
VERTEX
  8
0
 10
100.864583389
 20
132.662891712
 30
0.0
  0
VERTEX
  8
0
 10
101.730608792
 20
132.162891712
 30
0.0
  0
VERTEX
  8
0
 10
100.864583389
 20
132.682891712
 30
0.0
  0
VERTEX
  8
0
 10
100.864583389
 20
138.917108288
 30
0.0
  0
VERTEX
  8
0
 10
101.730608792
 20
139.437108288
 30
0.0
  0
VERTEX
  8
0
 10
100.864583389
 20
138.937108288
 30
0.0
  0
VERTEX
  8
0
 10
94.9309524442
 20
142.362891712
 30
0.0
  0
VERTEX
  8
0
 10
94.0649270404
 20
141.862891712
 30
0.0
  0
VERTEX
  8
0
 10
94.9309524442
 20
142.382891712
 30
0.0
  0
VERTEX
  8
0
 10
94.9309524442
 20
148.617108288
 30
0.0
  0
VERTEX
  8
0
 10
94.0649270404
 20
149.137108288
 30
0.0
  0
VERTEX
  8
0
 10
94.9309524442
 20
148.637108288
 30
0.0
  0
VERTEX
  8
0
 10
100.864583389
 20
152.062891712
 30
0.0
  0
VERTEX
  8
0
 10
101.730608792
 20
151.562891712
 30
0.0
  0
VERTEX
  8
0
 10
100.864583389
 20
152.082891712
 30
0.0
  0
VERTEX
  8
0
 10
100.864583389
 20
158.317108288
 30
0.0
  0
VERTEX
  8
0
 10
101.730608792
 20
158.837108288
 30
0.0
  0
VERTEX
  8
0
 10
100.864583389
 20
158.337108288
 30
0.0
  0
VERTEX
  8
0
 10
94.9309524442
 20
161.762891712
 30
0.0
  0
VERTEX
  8
0
 10
94.0649270404
 20
161.262891712
 30
0.0
  0
VERTEX
  8
0
 10
94.9309524442
 20
161.782891712
 30
0.0
  0
VERTEX
  8
0
 10
86.2706984064
 20
176.762891712
 30
0.0
  0
VERTEX
  8
0
 10
80.3370674619
 20
173.337108288
 30
0.0
  0
VERTEX
  8
0
 10
87.2652706922
 20
161.337108288
 30
0.0
  0
SEQEND
  8
0
  0
POLYLINE
  8
0
 62
0
 70
0
 66
1
 10
0.0
 20
0.0
 30
0.0
  0
VERTEX
  8
0
 10
96.4963365851
 20
152.7
 30
0.0
  0
VERTEX
  8
0
 10
96.4963365851
 20
158.2
 30
0.0
  0
VERTEX
  8
0
 10
91.3001841624
 20
155.2
 30
0.0
  0
VERTEX
  8
0
 10
96.4963365851
 20
152.2
 30
0.0
  0
SEQEND
  8
0
  0
POLYLINE
  8
0
 62
0
 70
0
 66
1
 10
0.0
 20
0.0
 30
0.0
  0
VERTEX
  8
0
 10
87.4328301923
 20
65.4
 30
0.0
  0
VERTEX
  8
0
 10
87.4328301923
 20
70.9
 30
0.0
  0
VERTEX
  8
0
 10
92.628982615
 20
67.9
 30
0.0
  0
VERTEX
  8
0
 10
87.4328301923
 20
64.9
 30
0.0
  0
SEQEND
  8
0
  0
POLYLINE
  8
0
 62
0
 70
0
 66
1
 10
0.0
 20
0.0
 30
0.0
  0
VERTEX
  8
0
 10
88.9982143332
 20
3.11710828847
 30
0.0
  0
VERTEX
  8
0
 10
89.8642397369
 20
3.63710828847
 30
0.0
  0
VERTEX
  8
0
 10
88.9982143332
 20
3.13710828847
 30
0.0
  0
VERTEX
  8
0
 10
83.0645833887
 20
6.56289171153
 30
0.0
  0
VERTEX
  8
0
 10
82.1985579849
 20
6.06289171153
 30
0.0
  0
VERTEX
  8
0
 10
83.0645833887
 20
6.58289171153
 30
0.0
  0
VERTEX
  8
0
 10
83.0645833887
 20
12.8171082885
 30
0.0
  0
VERTEX
  8
0
 10
82.1985579849
 20
13.3371082885
 30
0.0
  0
VERTEX
  8
0
 10
83.0645833887
 20
12.8371082885
 30
0.0
  0
VERTEX
  8
0
 10
88.9982143332
 20
16.2628917115
 30
0.0
  0
VERTEX
  8
0
 10
89.8642397369
 20
15.7628917115
 30
0.0
  0
VERTEX
  8
0
 10
88.9982143332
 20
16.2828917115
 30
0.0
  0
VERTEX
  8
0
 10
88.9982143332
 20
22.5171082885
 30
0.0
  0
VERTEX
  8
0
 10
89.8642397369
 20
23.0371082885
 30
0.0
  0
VERTEX
  8
0
 10
88.9982143332
 20
22.5371082885
 30
0.0
  0
VERTEX
  8
0
 10
83.0645833887
 20
25.9628917115
 30
0.0
  0
VERTEX
  8
0
 10
82.1985579849
 20
25.4628917115
 30
0.0
  0
VERTEX
  8
0
 10
83.0645833887
 20
25.9828917115
 30
0.0
  0
VERTEX
  8
0
 10
83.0645833887
 20
32.2171082885
 30
0.0
  0
VERTEX
  8
0
 10
82.1985579849
 20
32.7371082885
 30
0.0
  0
VERTEX
  8
0
 10
83.0645833887
 20
32.2371082885
 30
0.0
  0
VERTEX
  8
0
 10
88.9982143332
 20
35.6628917115
 30
0.0
  0
VERTEX
  8
0
 10
89.8642397369
 20
35.1628917115
 30
0.0
  0
VERTEX
  8
0
 10
88.9982143332
 20
35.6828917115
 30
0.0
  0
VERTEX
  8
0
 10
88.9982143332
 20
41.9171082885
 30
0.0
  0
VERTEX
  8
0
 10
89.8642397369
 20
42.4371082885
 30
0.0
  0
VERTEX
  8
0
 10
88.9982143332
 20
41.9371082885
 30
0.0
  0
VERTEX
  8
0
 10
83.0645833887
 20
45.3628917115
 30
0.0
  0
VERTEX
  8
0
 10
82.1985579849
 20
44.8628917115
 30
0.0
  0
VERTEX
  8
0
 10
83.0645833887
 20
45.3828917115
 30
0.0
  0
VERTEX
  8
0
 10
83.0645833887
 20
51.6171082885
 30
0.0
  0
VERTEX
  8
0
 10
82.1985579849
 20
52.1371082885
 30
0.0
  0
VERTEX
  8
0
 10
83.0645833887
 20
51.6371082885
 30
0.0
  0
VERTEX
  8
0
 10
88.9982143332
 20
55.0628917115
 30
0.0
  0
VERTEX
  8
0
 10
89.8642397369
 20
54.5628917115
 30
0.0
  0
VERTEX
  8
0
 10
88.9982143332
 20
55.0828917115
 30
0.0
  0
VERTEX
  8
0
 10
88.9982143332
 20
61.3171082885
 30
0.0
  0
VERTEX
  8
0
 10
89.8642397369
 20
61.8371082885
 30
0.0
  0
VERTEX
  8
0
 10
88.9982143332
 20
61.3371082885
 30
0.0
  0
VERTEX
  8
0
 10
83.0645833887
 20
64.7628917115
 30
0.0
  0
VERTEX
  8
0
 10
82.1985579849
 20
64.2628917115
 30
0.0
  0
VERTEX
  8
0
 10
83.0645833887
 20
64.7828917115
 30
0.0
  0
VERTEX
  8
0
 10
83.0645833887
 20
71.0171082885
 30
0.0
  0
VERTEX
  8
0
 10
82.1985579849
 20
71.5371082885
 30
0.0
  0
VERTEX
  8
0
 10
83.0645833887
 20
71.0371082885
 30
0.0
  0
VERTEX
  8
0
 10
88.9982143332
 20
74.4628917115
 30
0.0
  0
VERTEX
  8
0
 10
89.8642397369
 20
73.9628917115
 30
0.0
  0
VERTEX
  8
0
 10
88.9982143332
 20
74.4828917115
 30
0.0
  0
VERTEX
  8
0
 10
88.9982143332
 20
80.7171082885
 30
0.0
  0
VERTEX
  8
0
 10
89.8642397369
 20
81.2371082885
 30
0.0
  0
VERTEX
  8
0
 10
88.9982143332
 20
80.7371082885
 30
0.0
  0
VERTEX
  8
0
 10
83.0645833887
 20
84.1628917115
 30
0.0
  0
VERTEX
  8
0
 10
82.1985579849
 20
83.6628917115
 30
0.0
  0
VERTEX
  8
0
 10
83.0645833887
 20
84.1828917115
 30
0.0
  0
VERTEX
  8
0
 10
83.0645833887
 20
90.4171082885
 30
0.0
  0
VERTEX
  8
0
 10
82.1985579849
 20
90.9371082885
 30
0.0
  0
VERTEX
  8
0
 10
83.0645833887
 20
90.4371082885
 30
0.0
  0
VERTEX
  8
0
 10
88.9982143332
 20
93.8628917115
 30
0.0
  0
VERTEX
  8
0
 10
89.8642397369
 20
93.3628917115
 30
0.0
  0
VERTEX
  8
0
 10
88.9982143332
 20
93.8828917115
 30
0.0
  0
VERTEX
  8
0
 10
88.9982143332
 20
100.117108288
 30
0.0
  0
VERTEX
  8
0
 10
89.8642397369
 20
100.637108288
 30
0.0
  0
VERTEX
  8
0
 10
88.9982143332
 20
100.137108288
 30
0.0
  0
VERTEX
  8
0
 10
83.0645833887
 20
103.562891712
 30
0.0
  0
VERTEX
  8
0
 10
82.1985579849
 20
103.062891712
 30
0.0
  0
VERTEX
  8
0
 10
83.0645833887
 20
103.582891712
 30
0.0
  0
VERTEX
  8
0
 10
83.0645833887
 20
109.817108288
 30
0.0
  0
VERTEX
  8
0
 10
82.1985579849
 20
110.337108288
 30
0.0
  0
VERTEX
  8
0
 10
83.0645833887
 20
109.837108288
 30
0.0
  0
VERTEX
  8
0
 10
88.9982143332
 20
113.262891712
 30
0.0
  0
VERTEX
  8
0
 10
89.8642397369
 20
112.762891712
 30
0.0
  0
VERTEX
  8
0
 10
88.9982143332
 20
113.282891712
 30
0.0
  0
VERTEX
  8
0
 10
88.9982143332
 20
119.517108288
 30
0.0
  0
VERTEX
  8
0
 10
89.8642397369
 20
120.037108288
 30
0.0
  0
VERTEX
  8
0
 10
88.9982143332
 20
119.537108288
 30
0.0
  0
VERTEX
  8
0
 10
83.0645833887
 20
122.962891712
 30
0.0
  0
VERTEX
  8
0
 10
82.1985579849
 20
122.462891712
 30
0.0
  0
VERTEX
  8
0
 10
83.0645833887
 20
122.982891712
 30
0.0
  0
VERTEX
  8
0
 10
83.0645833887
 20
129.217108288
 30
0.0
  0
VERTEX
  8
0
 10
82.1985579849
 20
129.737108288
 30
0.0
  0
VERTEX
  8
0
 10
83.0645833887
 20
129.237108288
 30
0.0
  0
VERTEX
  8
0
 10
88.9982143332
 20
132.662891712
 30
0.0
  0
VERTEX
  8
0
 10
89.8642397369
 20
132.162891712
 30
0.0
  0
VERTEX
  8
0
 10
88.9982143332
 20
132.682891712
 30
0.0
  0
VERTEX
  8
0
 10
88.9982143332
 20
138.917108288
 30
0.0
  0
VERTEX
  8
0
 10
89.8642397369
 20
139.437108288
 30
0.0
  0
VERTEX
  8
0
 10
88.9982143332
 20
138.937108288
 30
0.0
  0
VERTEX
  8
0
 10
83.0645833887
 20
142.362891712
 30
0.0
  0
VERTEX
  8
0
 10
82.1985579849
 20
141.862891712
 30
0.0
  0
VERTEX
  8
0
 10
83.0645833887
 20
142.382891712
 30
0.0
  0
VERTEX
  8
0
 10
83.0645833887
 20
148.617108288
 30
0.0
  0
VERTEX
  8
0
 10
82.1985579849
 20
149.137108288
 30
0.0
  0
VERTEX
  8
0
 10
83.0645833887
 20
148.637108288
 30
0.0
  0
VERTEX
  8
0
 10
88.9982143332
 20
152.062891712
 30
0.0
  0
VERTEX
  8
0
 10
89.8642397369
 20
151.562891712
 30
0.0
  0
VERTEX
  8
0
 10
88.9982143332
 20
152.082891712
 30
0.0
  0
VERTEX
  8
0
 10
88.9982143332
 20
158.317108288
 30
0.0
  0
VERTEX
  8
0
 10
89.8642397369
 20
158.837108288
 30
0.0
  0
VERTEX
  8
0
 10
88.9982143332
 20
158.337108288
 30
0.0
  0
VERTEX
  8
0
 10
83.0645833887
 20
161.762891712
 30
0.0
  0
VERTEX
  8
0
 10
82.1985579849
 20
161.262891712
 30
0.0
  0
VERTEX
  8
0
 10
83.0645833887
 20
161.782891712
 30
0.0
  0
VERTEX
  8
0
 10
74.4043293508
 20
176.762891712
 30
0.0
  0
VERTEX
  8
0
 10
68.4706984064
 20
173.337108288
 30
0.0
  0
VERTEX
  8
0
 10
75.3989016366
 20
161.337108288
 30
0.0
  0
SEQEND
  8
0
  0
POLYLINE
  8
0
 62
0
 70
0
 66
1
 10
0.0
 20
0.0
 30
0.0
  0
VERTEX
  8
0
 10
96.4963365851
 20
16.9
 30
0.0
  0
VERTEX
  8
0
 10
96.4963365851
 20
22.4
 30
0.0
  0
VERTEX
  8
0
 10
91.3001841624
 20
19.4
 30
0.0
  0
VERTEX
  8
0
 10
96.4963365851
 20
16.4
 30
0.0
  0
SEQEND
  8
0
  0
POLYLINE
  8
0
 62
0
 70
0
 66
1
 10
0.0
 20
0.0
 30
0.0
  0
VERTEX
  8
0
 10
87.4328301923
 20
7.2
 30
0.0
  0
VERTEX
  8
0
 10
87.4328301923
 20
12.7
 30
0.0
  0
VERTEX
  8
0
 10
92.628982615
 20
9.7
 30
0.0
  0
VERTEX
  8
0
 10
87.4328301923
 20
6.7
 30
0.0
  0
SEQEND
  8
0
  0
POLYLINE
  8
0
 62
0
 70
0
 66
1
 10
0.0
 20
0.0
 30
0.0
  0
VERTEX
  8
0
 10
87.4328301923
 20
46.0
 30
0.0
  0
VERTEX
  8
0
 10
87.4328301923
 20
51.5
 30
0.0
  0
VERTEX
  8
0
 10
92.628982615
 20
48.5
 30
0.0
  0
VERTEX
  8
0
 10
87.4328301923
 20
45.5
 30
0.0
  0
SEQEND
  8
0
  0
POLYLINE
  8
0
 62
0
 70
0
 66
1
 10
0.0
 20
0.0
 30
0.0
  0
VERTEX
  8
0
 10
75.5664611367
 20
104.2
 30
0.0
  0
VERTEX
  8
0
 10
75.5664611367
 20
109.7
 30
0.0
  0
VERTEX
  8
0
 10
80.7626135594
 20
106.7
 30
0.0
  0
VERTEX
  8
0
 10
75.5664611367
 20
103.7
 30
0.0
  0
SEQEND
  8
0
  0
POLYLINE
  8
0
 62
0
 70
0
 66
1
 10
0.0
 20
0.0
 30
0.0
  0
VERTEX
  8
0
 10
75.5664611367
 20
143.0
 30
0.0
  0
VERTEX
  8
0
 10
75.5664611367
 20
148.5
 30
0.0
  0
VERTEX
  8
0
 10
80.7626135594
 20
145.5
 30
0.0
  0
VERTEX
  8
0
 10
75.5664611367
 20
142.5
 30
0.0
  0
SEQEND
  8
0
  0
POLYLINE
  8
0
 62
0
 70
0
 66
1
 10
0.0
 20
0.0
 30
0.0
  0
VERTEX
  8
0
 10
75.5664611367
 20
123.6
 30
0.0
  0
VERTEX
  8
0
 10
75.5664611367
 20
129.1
 30
0.0
  0
VERTEX
  8
0
 10
80.7626135594
 20
126.1
 30
0.0
  0
VERTEX
  8
0
 10
75.5664611367
 20
123.1
 30
0.0
  0
SEQEND
  8
0
  0
POLYLINE
  8
0
 62
0
 70
0
 66
1
 10
0.0
 20
0.0
 30
0.0
  0
VERTEX
  8
0
 10
96.4963365851
 20
55.7
 30
0.0
  0
VERTEX
  8
0
 10
96.4963365851
 20
61.2
 30
0.0
  0
VERTEX
  8
0
 10
91.3001841624
 20
58.2
 30
0.0
  0
VERTEX
  8
0
 10
96.4963365851
 20
55.2
 30
0.0
  0
SEQEND
  8
0
  0
POLYLINE
  8
0
 62
0
 70
0
 66
1
 10
0.0
 20
0.0
 30
0.0
  0
VERTEX
  8
0
 10
84.6299675296
 20
113.9
 30
0.0
  0
VERTEX
  8
0
 10
84.6299675296
 20
119.4
 30
0.0
  0
VERTEX
  8
0
 10
79.4338151069
 20
116.4
 30
0.0
  0
VERTEX
  8
0
 10
84.6299675296
 20
113.4
 30
0.0
  0
SEQEND
  8
0
  0
POLYLINE
  8
0
 62
0
 70
0
 66
1
 10
0.0
 20
0.0
 30
0.0
  0
VERTEX
  8
0
 10
87.4328301923
 20
26.6
 30
0.0
  0
VERTEX
  8
0
 10
87.4328301923
 20
32.1
 30
0.0
  0
VERTEX
  8
0
 10
92.628982615
 20
29.1
 30
0.0
  0
VERTEX
  8
0
 10
87.4328301923
 20
26.1
 30
0.0
  0
SEQEND
  8
0
  0
POLYLINE
  8
0
 62
0
 70
0
 66
1
 10
0.0
 20
0.0
 30
0.0
  0
VERTEX
  8
0
 10
84.6299675296
 20
133.3
 30
0.0
  0
VERTEX
  8
0
 10
84.6299675296
 20
138.8
 30
0.0
  0
VERTEX
  8
0
 10
79.4338151069
 20
135.8
 30
0.0
  0
VERTEX
  8
0
 10
84.6299675296
 20
132.8
 30
0.0
  0
SEQEND
  8
0
  0
POLYLINE
  8
0
 62
0
 70
0
 66
1
 10
0.0
 20
0.0
 30
0.0
  0
VERTEX
  8
0
 10
96.4963365851
 20
36.3
 30
0.0
  0
VERTEX
  8
0
 10
96.4963365851
 20
41.8
 30
0.0
  0
VERTEX
  8
0
 10
91.3001841624
 20
38.8
 30
0.0
  0
VERTEX
  8
0
 10
96.4963365851
 20
35.8
 30
0.0
  0
SEQEND
  8
0
  0
POLYLINE
  8
0
 62
0
 70
0
 66
1
 10
0.0
 20
0.0
 30
0.0
  0
VERTEX
  8
0
 10
84.6299675296
 20
152.7
 30
0.0
  0
VERTEX
  8
0
 10
84.6299675296
 20
158.2
 30
0.0
  0
VERTEX
  8
0
 10
79.4338151069
 20
155.2
 30
0.0
  0
VERTEX
  8
0
 10
84.6299675296
 20
152.2
 30
0.0
  0
SEQEND
  8
0
  0
POLYLINE
  8
0
 62
0
 70
0
 66
1
 10
0.0
 20
0.0
 30
0.0
  0
VERTEX
  8
0
 10
96.4963365851
 20
94.5
 30
0.0
  0
VERTEX
  8
0
 10
96.4963365851
 20
100.0
 30
0.0
  0
VERTEX
  8
0
 10
91.3001841624
 20
97.0
 30
0.0
  0
VERTEX
  8
0
 10
96.4963365851
 20
94.0
 30
0.0
  0
SEQEND
  8
0
  0
POLYLINE
  8
0
 62
0
 70
0
 66
1
 10
0.0
 20
0.0
 30
0.0
  0
VERTEX
  8
0
 10
87.4328301923
 20
104.2
 30
0.0
  0
VERTEX
  8
0
 10
87.4328301923
 20
109.7
 30
0.0
  0
VERTEX
  8
0
 10
92.628982615
 20
106.7
 30
0.0
  0
VERTEX
  8
0
 10
87.4328301923
 20
103.7
 30
0.0
  0
SEQEND
  8
0
  0
POLYLINE
  8
0
 62
0
 70
0
 66
1
 10
0.0
 20
0.0
 30
0.0
  0
VERTEX
  8
0
 10
96.4963365851
 20
113.9
 30
0.0
  0
VERTEX
  8
0
 10
96.4963365851
 20
119.4
 30
0.0
  0
VERTEX
  8
0
 10
91.3001841624
 20
116.4
 30
0.0
  0
VERTEX
  8
0
 10
96.4963365851
 20
113.4
 30
0.0
  0
SEQEND
  8
0
  0
POLYLINE
  8
0
 62
0
 70
0
 66
1
 10
0.0
 20
0.0
 30
0.0
  0
VERTEX
  8
0
 10
87.4328301923
 20
123.6
 30
0.0
  0
VERTEX
  8
0
 10
87.4328301923
 20
129.1
 30
0.0
  0
VERTEX
  8
0
 10
92.628982615
 20
126.1
 30
0.0
  0
VERTEX
  8
0
 10
87.4328301923
 20
123.1
 30
0.0
  0
SEQEND
  8
0
  0
POLYLINE
  8
0
 62
0
 70
0
 66
1
 10
0.0
 20
0.0
 30
0.0
  0
VERTEX
  8
0
 10
96.4963365851
 20
75.1
 30
0.0
  0
VERTEX
  8
0
 10
96.4963365851
 20
80.6
 30
0.0
  0
VERTEX
  8
0
 10
91.3001841624
 20
77.6
 30
0.0
  0
VERTEX
  8
0
 10
96.4963365851
 20
74.6
 30
0.0
  0
SEQEND
  8
0
  0
POLYLINE
  8
0
 62
0
 70
0
 66
1
 10
0.0
 20
0.0
 30
0.0
  0
VERTEX
  8
0
 10
87.4328301923
 20
84.8
 30
0.0
  0
VERTEX
  8
0
 10
87.4328301923
 20
90.3
 30
0.0
  0
VERTEX
  8
0
 10
92.628982615
 20
87.3
 30
0.0
  0
VERTEX
  8
0
 10
87.4328301923
 20
84.3
 30
0.0
  0
SEQEND
  8
0
  0
POLYLINE
  8
0
 62
0
 70
0
 66
1
 10
0.0
 20
0.0
 30
0.0
  0
VERTEX
  8
0
 10
72.7635984741
 20
113.9
 30
0.0
  0
VERTEX
  8
0
 10
72.7635984741
 20
119.4
 30
0.0
  0
VERTEX
  8
0
 10
67.5674460514
 20
116.4
 30
0.0
  0
VERTEX
  8
0
 10
72.7635984741
 20
113.4
 30
0.0
  0
SEQEND
  8
0
  0
POLYLINE
  8
0
 62
0
 70
0
 66
1
 10
0.0
 20
0.0
 30
0.0
  0
VERTEX
  8
0
 10
72.7635984741
 20
152.7
 30
0.0
  0
VERTEX
  8
0
 10
72.7635984741
 20
158.2
 30
0.0
  0
VERTEX
  8
0
 10
67.5674460514
 20
155.2
 30
0.0
  0
VERTEX
  8
0
 10
72.7635984741
 20
152.2
 30
0.0
  0
SEQEND
  8
0
  0
POLYLINE
  8
0
 62
0
 70
0
 66
1
 10
0.0
 20
0.0
 30
0.0
  0
VERTEX
  8
0
 10
72.7635984741
 20
133.3
 30
0.0
  0
VERTEX
  8
0
 10
72.7635984741
 20
138.8
 30
0.0
  0
VERTEX
  8
0
 10
67.5674460514
 20
135.8
 30
0.0
  0
VERTEX
  8
0
 10
72.7635984741
 20
132.8
 30
0.0
  0
SEQEND
  8
0
  0
POLYLINE
  8
0
 62
0
 70
0
 66
1
 10
0.0
 20
0.0
 30
0.0
  0
VERTEX
  8
0
 10
63.7000920812
 20
143.0
 30
0.0
  0
VERTEX
  8
0
 10
63.7000920812
 20
148.5
 30
0.0
  0
VERTEX
  8
0
 10
68.8962445039
 20
145.5
 30
0.0
  0
VERTEX
  8
0
 10
63.7000920812
 20
142.5
 30
0.0
  0
SEQEND
  8
0
  0
POLYLINE
  8
0
 62
0
 70
0
 66
1
 10
0.0
 20
0.0
 30
0.0
  0
VERTEX
  8
0
 10
63.7000920812
 20
123.6
 30
0.0
  0
VERTEX
  8
0
 10
63.7000920812
 20
129.1
 30
0.0
  0
VERTEX
  8
0
 10
68.8962445039
 20
126.1
 30
0.0
  0
VERTEX
  8
0
 10
63.7000920812
 20
123.1
 30
0.0
  0
SEQEND
  8
0
  0
POLYLINE
  8
0
 62
0
 70
0
 66
1
 10
0.0
 20
0.0
 30
0.0
  0
VERTEX
  8
0
 10
77.1318452776
 20
3.11710828847
 30
0.0
  0
VERTEX
  8
0
 10
77.9978706814
 20
3.63710828847
 30
0.0
  0
VERTEX
  8
0
 10
77.1318452776
 20
3.13710828847
 30
0.0
  0
VERTEX
  8
0
 10
71.1982143332
 20
6.56289171153
 30
0.0
  0
VERTEX
  8
0
 10
70.3321889294
 20
6.06289171153
 30
0.0
  0
VERTEX
  8
0
 10
71.1982143332
 20
6.58289171153
 30
0.0
  0
VERTEX
  8
0
 10
71.1982143332
 20
12.8171082885
 30
0.0
  0
VERTEX
  8
0
 10
70.3321889294
 20
13.3371082885
 30
0.0
  0
VERTEX
  8
0
 10
71.1982143332
 20
12.8371082885
 30
0.0
  0
VERTEX
  8
0
 10
77.1318452776
 20
16.2628917115
 30
0.0
  0
VERTEX
  8
0
 10
77.9978706814
 20
15.7628917115
 30
0.0
  0
VERTEX
  8
0
 10
77.1318452776
 20
16.2828917115
 30
0.0
  0
VERTEX
  8
0
 10
77.1318452776
 20
22.5171082885
 30
0.0
  0
VERTEX
  8
0
 10
77.9978706814
 20
23.0371082885
 30
0.0
  0
VERTEX
  8
0
 10
77.1318452776
 20
22.5371082885
 30
0.0
  0
VERTEX
  8
0
 10
71.1982143332
 20
25.9628917115
 30
0.0
  0
VERTEX
  8
0
 10
70.3321889294
 20
25.4628917115
 30
0.0
  0
VERTEX
  8
0
 10
71.1982143332
 20
25.9828917115
 30
0.0
  0
VERTEX
  8
0
 10
71.1982143332
 20
32.2171082885
 30
0.0
  0
VERTEX
  8
0
 10
70.3321889294
 20
32.7371082885
 30
0.0
  0
VERTEX
  8
0
 10
71.1982143332
 20
32.2371082885
 30
0.0
  0
VERTEX
  8
0
 10
77.1318452776
 20
35.6628917115
 30
0.0
  0
VERTEX
  8
0
 10
77.9978706814
 20
35.1628917115
 30
0.0
  0
VERTEX
  8
0
 10
77.1318452776
 20
35.6828917115
 30
0.0
  0
VERTEX
  8
0
 10
77.1318452776
 20
41.9171082885
 30
0.0
  0
VERTEX
  8
0
 10
77.9978706814
 20
42.4371082885
 30
0.0
  0
VERTEX
  8
0
 10
77.1318452776
 20
41.9371082885
 30
0.0
  0
VERTEX
  8
0
 10
71.1982143332
 20
45.3628917115
 30
0.0
  0
VERTEX
  8
0
 10
70.3321889294
 20
44.8628917115
 30
0.0
  0
VERTEX
  8
0
 10
71.1982143332
 20
45.3828917115
 30
0.0
  0
VERTEX
  8
0
 10
71.1982143332
 20
51.6171082885
 30
0.0
  0
VERTEX
  8
0
 10
70.3321889294
 20
52.1371082885
 30
0.0
  0
VERTEX
  8
0
 10
71.1982143332
 20
51.6371082885
 30
0.0
  0
VERTEX
  8
0
 10
77.1318452776
 20
55.0628917115
 30
0.0
  0
VERTEX
  8
0
 10
77.9978706814
 20
54.5628917115
 30
0.0
  0
VERTEX
  8
0
 10
77.1318452776
 20
55.0828917115
 30
0.0
  0
VERTEX
  8
0
 10
77.1318452776
 20
61.3171082885
 30
0.0
  0
VERTEX
  8
0
 10
77.9978706814
 20
61.8371082885
 30
0.0
  0
VERTEX
  8
0
 10
77.1318452776
 20
61.3371082885
 30
0.0
  0
VERTEX
  8
0
 10
71.1982143332
 20
64.7628917115
 30
0.0
  0
VERTEX
  8
0
 10
70.3321889294
 20
64.2628917115
 30
0.0
  0
VERTEX
  8
0
 10
71.1982143332
 20
64.7828917115
 30
0.0
  0
VERTEX
  8
0
 10
71.1982143332
 20
71.0171082885
 30
0.0
  0
VERTEX
  8
0
 10
70.3321889294
 20
71.5371082885
 30
0.0
  0
VERTEX
  8
0
 10
71.1982143332
 20
71.0371082885
 30
0.0
  0
VERTEX
  8
0
 10
77.1318452776
 20
74.4628917115
 30
0.0
  0
VERTEX
  8
0
 10
77.9978706814
 20
73.9628917115
 30
0.0
  0
VERTEX
  8
0
 10
77.1318452776
 20
74.4828917115
 30
0.0
  0
VERTEX
  8
0
 10
77.1318452776
 20
80.7171082885
 30
0.0
  0
VERTEX
  8
0
 10
77.9978706814
 20
81.2371082885
 30
0.0
  0
VERTEX
  8
0
 10
77.1318452776
 20
80.7371082885
 30
0.0
  0
VERTEX
  8
0
 10
71.1982143332
 20
84.1628917115
 30
0.0
  0
VERTEX
  8
0
 10
70.3321889294
 20
83.6628917115
 30
0.0
  0
VERTEX
  8
0
 10
71.1982143332
 20
84.1828917115
 30
0.0
  0
VERTEX
  8
0
 10
71.1982143332
 20
90.4171082885
 30
0.0
  0
VERTEX
  8
0
 10
70.3321889294
 20
90.9371082885
 30
0.0
  0
VERTEX
  8
0
 10
71.1982143332
 20
90.4371082885
 30
0.0
  0
VERTEX
  8
0
 10
77.1318452776
 20
93.8628917115
 30
0.0
  0
VERTEX
  8
0
 10
77.9978706814
 20
93.3628917115
 30
0.0
  0
VERTEX
  8
0
 10
77.1318452776
 20
93.8828917115
 30
0.0
  0
VERTEX
  8
0
 10
77.1318452776
 20
100.117108288
 30
0.0
  0
VERTEX
  8
0
 10
77.9978706814
 20
100.637108288
 30
0.0
  0
VERTEX
  8
0
 10
77.1318452776
 20
100.137108288
 30
0.0
  0
VERTEX
  8
0
 10
71.1982143332
 20
103.562891712
 30
0.0
  0
VERTEX
  8
0
 10
70.3321889294
 20
103.062891712
 30
0.0
  0
VERTEX
  8
0
 10
71.1982143332
 20
103.582891712
 30
0.0
  0
VERTEX
  8
0
 10
71.1982143332
 20
109.817108288
 30
0.0
  0
VERTEX
  8
0
 10
70.3321889294
 20
110.337108288
 30
0.0
  0
VERTEX
  8
0
 10
71.1982143332
 20
109.837108288
 30
0.0
  0
VERTEX
  8
0
 10
77.1318452776
 20
113.262891712
 30
0.0
  0
VERTEX
  8
0
 10
77.9978706814
 20
112.762891712
 30
0.0
  0
VERTEX
  8
0
 10
77.1318452776
 20
113.282891712
 30
0.0
  0
VERTEX
  8
0
 10
77.1318452776
 20
119.517108288
 30
0.0
  0
VERTEX
  8
0
 10
77.9978706814
 20
120.037108288
 30
0.0
  0
VERTEX
  8
0
 10
77.1318452776
 20
119.537108288
 30
0.0
  0
VERTEX
  8
0
 10
71.1982143332
 20
122.962891712
 30
0.0
  0
VERTEX
  8
0
 10
70.3321889294
 20
122.462891712
 30
0.0
  0
VERTEX
  8
0
 10
71.1982143332
 20
122.982891712
 30
0.0
  0
VERTEX
  8
0
 10
71.1982143332
 20
129.217108288
 30
0.0
  0
VERTEX
  8
0
 10
70.3321889294
 20
129.737108288
 30
0.0
  0
VERTEX
  8
0
 10
71.1982143332
 20
129.237108288
 30
0.0
  0
VERTEX
  8
0
 10
77.1318452776
 20
132.662891712
 30
0.0
  0
VERTEX
  8
0
 10
77.9978706814
 20
132.162891712
 30
0.0
  0
VERTEX
  8
0
 10
77.1318452776
 20
132.682891712
 30
0.0
  0
VERTEX
  8
0
 10
77.1318452776
 20
138.917108288
 30
0.0
  0
VERTEX
  8
0
 10
77.9978706814
 20
139.437108288
 30
0.0
  0
VERTEX
  8
0
 10
77.1318452776
 20
138.937108288
 30
0.0
  0
VERTEX
  8
0
 10
71.1982143332
 20
142.362891712
 30
0.0
  0
VERTEX
  8
0
 10
70.3321889294
 20
141.862891712
 30
0.0
  0
VERTEX
  8
0
 10
71.1982143332
 20
142.382891712
 30
0.0
  0
VERTEX
  8
0
 10
71.1982143332
 20
148.617108288
 30
0.0
  0
VERTEX
  8
0
 10
70.3321889294
 20
149.137108288
 30
0.0
  0
VERTEX
  8
0
 10
71.1982143332
 20
148.637108288
 30
0.0
  0
VERTEX
  8
0
 10
77.1318452776
 20
152.062891712
 30
0.0
  0
VERTEX
  8
0
 10
77.9978706814
 20
151.562891712
 30
0.0
  0
VERTEX
  8
0
 10
77.1318452776
 20
152.082891712
 30
0.0
  0
VERTEX
  8
0
 10
77.1318452776
 20
158.317108288
 30
0.0
  0
VERTEX
  8
0
 10
77.9978706814
 20
158.837108288
 30
0.0
  0
VERTEX
  8
0
 10
77.1318452776
 20
158.337108288
 30
0.0
  0
VERTEX
  8
0
 10
71.1982143332
 20
161.762891712
 30
0.0
  0
VERTEX
  8
0
 10
70.3321889294
 20
161.262891712
 30
0.0
  0
VERTEX
  8
0
 10
71.1982143332
 20
161.782891712
 30
0.0
  0
VERTEX
  8
0
 10
62.5379602953
 20
176.762891712
 30
0.0
  0
VERTEX
  8
0
 10
56.6043293508
 20
173.337108288
 30
0.0
  0
VERTEX
  8
0
 10
63.5325325811
 20
161.337108288
 30
0.0
  0
SEQEND
  8
0
  0
POLYLINE
  8
0
 62
0
 70
0
 66
1
 10
0.0
 20
0.0
 30
0.0
  0
VERTEX
  8
0
 10
75.5664611367
 20
7.2
 30
0.0
  0
VERTEX
  8
0
 10
75.5664611367
 20
12.7
 30
0.0
  0
VERTEX
  8
0
 10
80.7626135594
 20
9.7
 30
0.0
  0
VERTEX
  8
0
 10
75.5664611367
 20
6.7
 30
0.0
  0
SEQEND
  8
0
  0
POLYLINE
  8
0
 62
0
 70
0
 66
1
 10
0.0
 20
0.0
 30
0.0
  0
VERTEX
  8
0
 10
75.5664611367
 20
26.6
 30
0.0
  0
VERTEX
  8
0
 10
75.5664611367
 20
32.1
 30
0.0
  0
VERTEX
  8
0
 10
80.7626135594
 20
29.1
 30
0.0
  0
VERTEX
  8
0
 10
75.5664611367
 20
26.1
 30
0.0
  0
SEQEND
  8
0
  0
POLYLINE
  8
0
 62
0
 70
0
 66
1
 10
0.0
 20
0.0
 30
0.0
  0
VERTEX
  8
0
 10
84.6299675296
 20
36.3
 30
0.0
  0
VERTEX
  8
0
 10
84.6299675296
 20
41.8
 30
0.0
  0
VERTEX
  8
0
 10
79.4338151069
 20
38.8
 30
0.0
  0
VERTEX
  8
0
 10
84.6299675296
 20
35.8
 30
0.0
  0
SEQEND
  8
0
  0
POLYLINE
  8
0
 62
0
 70
0
 66
1
 10
0.0
 20
0.0
 30
0.0
  0
VERTEX
  8
0
 10
75.5664611367
 20
46.0
 30
0.0
  0
VERTEX
  8
0
 10
75.5664611367
 20
51.5
 30
0.0
  0
VERTEX
  8
0
 10
80.7626135594
 20
48.5
 30
0.0
  0
VERTEX
  8
0
 10
75.5664611367
 20
45.5
 30
0.0
  0
SEQEND
  8
0
  0
POLYLINE
  8
0
 62
0
 70
0
 66
1
 10
0.0
 20
0.0
 30
0.0
  0
VERTEX
  8
0
 10
75.5664611367
 20
65.4
 30
0.0
  0
VERTEX
  8
0
 10
75.5664611367
 20
70.9
 30
0.0
  0
VERTEX
  8
0
 10
80.7626135594
 20
67.9
 30
0.0
  0
VERTEX
  8
0
 10
75.5664611367
 20
64.9
 30
0.0
  0
SEQEND
  8
0
  0
POLYLINE
  8
0
 62
0
 70
0
 66
1
 10
0.0
 20
0.0
 30
0.0
  0
VERTEX
  8
0
 10
84.6299675296
 20
55.7
 30
0.0
  0
VERTEX
  8
0
 10
84.6299675296
 20
61.2
 30
0.0
  0
VERTEX
  8
0
 10
79.4338151069
 20
58.2
 30
0.0
  0
VERTEX
  8
0
 10
84.6299675296
 20
55.2
 30
0.0
  0
SEQEND
  8
0
  0
POLYLINE
  8
0
 62
0
 70
0
 66
1
 10
0.0
 20
0.0
 30
0.0
  0
VERTEX
  8
0
 10
84.6299675296
 20
16.9
 30
0.0
  0
VERTEX
  8
0
 10
84.6299675296
 20
22.4
 30
0.0
  0
VERTEX
  8
0
 10
79.4338151069
 20
19.4
 30
0.0
  0
VERTEX
  8
0
 10
84.6299675296
 20
16.4
 30
0.0
  0
SEQEND
  8
0
  0
POLYLINE
  8
0
 62
0
 70
0
 66
1
 10
0.0
 20
0.0
 30
0.0
  0
VERTEX
  8
0
 10
84.6299675296
 20
75.1
 30
0.0
  0
VERTEX
  8
0
 10
84.6299675296
 20
80.6
 30
0.0
  0
VERTEX
  8
0
 10
79.4338151069
 20
77.6
 30
0.0
  0
VERTEX
  8
0
 10
84.6299675296
 20
74.6
 30
0.0
  0
SEQEND
  8
0
  0
POLYLINE
  8
0
 62
0
 70
0
 66
1
 10
0.0
 20
0.0
 30
0.0
  0
VERTEX
  8
0
 10
75.5664611367
 20
84.8
 30
0.0
  0
VERTEX
  8
0
 10
75.5664611367
 20
90.3
 30
0.0
  0
VERTEX
  8
0
 10
80.7626135594
 20
87.3
 30
0.0
  0
VERTEX
  8
0
 10
75.5664611367
 20
84.3
 30
0.0
  0
SEQEND
  8
0
  0
POLYLINE
  8
0
 62
0
 70
0
 66
1
 10
0.0
 20
0.0
 30
0.0
  0
VERTEX
  8
0
 10
84.6299675296
 20
94.5
 30
0.0
  0
VERTEX
  8
0
 10
84.6299675296
 20
100.0
 30
0.0
  0
VERTEX
  8
0
 10
79.4338151069
 20
97.0
 30
0.0
  0
VERTEX
  8
0
 10
84.6299675296
 20
94.0
 30
0.0
  0
SEQEND
  8
0
  0
POLYLINE
  8
0
 62
0
 70
0
 66
1
 10
0.0
 20
0.0
 30
0.0
  0
VERTEX
  8
0
 10
99.2991992478
 20
65.4
 30
0.0
  0
VERTEX
  8
0
 10
99.2991992478
 20
70.9
 30
0.0
  0
VERTEX
  8
0
 10
104.49535167
 20
67.9
 30
0.0
  0
VERTEX
  8
0
 10
99.2991992478
 20
64.9
 30
0.0
  0
SEQEND
  8
0
  0
POLYLINE
  8
0
 62
0
 70
0
 66
1
 10
0.0
 20
0.0
 30
0.0
  0
VERTEX
  8
0
 10
108.362705641
 20
16.9
 30
0.0
  0
VERTEX
  8
0
 10
108.362705641
 20
22.4
 30
0.0
  0
VERTEX
  8
0
 10
103.166553218
 20
19.4
 30
0.0
  0
VERTEX
  8
0
 10
108.362705641
 20
16.4
 30
0.0
  0
SEQEND
  8
0
  0
POLYLINE
  8
0
 62
0
 70
0
 66
1
 10
0.0
 20
0.0
 30
0.0
  0
VERTEX
  8
0
 10
99.2991992478
 20
7.2
 30
0.0
  0
VERTEX
  8
0
 10
99.2991992478
 20
12.7
 30
0.0
  0
VERTEX
  8
0
 10
104.49535167
 20
9.7
 30
0.0
  0
VERTEX
  8
0
 10
99.2991992478
 20
6.7
 30
0.0
  0
SEQEND
  8
0
  0
POLYLINE
  8
0
 62
0
 70
0
 66
1
 10
0.0
 20
0.0
 30
0.0
  0
VERTEX
  8
0
 10
108.362705641
 20
55.7
 30
0.0
  0
VERTEX
  8
0
 10
108.362705641
 20
61.2
 30
0.0
  0
VERTEX
  8
0
 10
103.166553218
 20
58.2
 30
0.0
  0
VERTEX
  8
0
 10
108.362705641
 20
55.2
 30
0.0
  0
SEQEND
  8
0
  0
POLYLINE
  8
0
 62
0
 70
0
 66
1
 10
0.0
 20
0.0
 30
0.0
  0
VERTEX
  8
0
 10
99.2991992478
 20
46.0
 30
0.0
  0
VERTEX
  8
0
 10
99.2991992478
 20
51.5
 30
0.0
  0
VERTEX
  8
0
 10
104.49535167
 20
48.5
 30
0.0
  0
VERTEX
  8
0
 10
99.2991992478
 20
45.5
 30
0.0
  0
SEQEND
  8
0
  0
POLYLINE
  8
0
 62
0
 70
0
 66
1
 10
0.0
 20
0.0
 30
0.0
  0
VERTEX
  8
0
 10
108.362705641
 20
36.3
 30
0.0
  0
VERTEX
  8
0
 10
108.362705641
 20
41.8
 30
0.0
  0
VERTEX
  8
0
 10
103.166553218
 20
38.8
 30
0.0
  0
VERTEX
  8
0
 10
108.362705641
 20
35.8
 30
0.0
  0
SEQEND
  8
0
  0
POLYLINE
  8
0
 62
0
 70
0
 66
1
 10
0.0
 20
0.0
 30
0.0
  0
VERTEX
  8
0
 10
99.2991992478
 20
26.6
 30
0.0
  0
VERTEX
  8
0
 10
99.2991992478
 20
32.1
 30
0.0
  0
VERTEX
  8
0
 10
104.49535167
 20
29.1
 30
0.0
  0
VERTEX
  8
0
 10
99.2991992478
 20
26.1
 30
0.0
  0
SEQEND
  8
0
  0
POLYLINE
  8
0
 62
0
 70
0
 66
1
 10
0.0
 20
0.0
 30
0.0
  0
VERTEX
  8
0
 10
37.1644913075
 20
55.7
 30
0.0
  0
VERTEX
  8
0
 10
37.1644913075
 20
61.2
 30
0.0
  0
VERTEX
  8
0
 10
31.9683388848
 20
58.2
 30
0.0
  0
VERTEX
  8
0
 10
37.1644913075
 20
55.2
 30
0.0
  0
SEQEND
  8
0
  0
POLYLINE
  8
0
 62
0
 70
0
 66
1
 10
0.0
 20
0.0
 30
0.0
  0
VERTEX
  8
0
 10
28.1009849146
 20
26.6
 30
0.0
  0
VERTEX
  8
0
 10
28.1009849146
 20
32.1
 30
0.0
  0
VERTEX
  8
0
 10
33.2971373373
 20
29.1
 30
0.0
  0
VERTEX
  8
0
 10
28.1009849146
 20
26.1
 30
0.0
  0
SEQEND
  8
0
  0
POLYLINE
  8
0
 62
0
 70
0
 66
1
 10
0.0
 20
0.0
 30
0.0
  0
VERTEX
  8
0
 10
25.298122252
 20
152.7
 30
0.0
  0
VERTEX
  8
0
 10
25.298122252
 20
158.2
 30
0.0
  0
VERTEX
  8
0
 10
20.1019698293
 20
155.2
 30
0.0
  0
VERTEX
  8
0
 10
25.298122252
 20
152.2
 30
0.0
  0
SEQEND
  8
0
  0
POLYLINE
  8
0
 62
0
 70
0
 66
1
 10
0.0
 20
0.0
 30
0.0
  0
VERTEX
  8
0
 10
28.1009849146
 20
7.2
 30
0.0
  0
VERTEX
  8
0
 10
28.1009849146
 20
12.7
 30
0.0
  0
VERTEX
  8
0
 10
33.2971373373
 20
9.7
 30
0.0
  0
VERTEX
  8
0
 10
28.1009849146
 20
6.7
 30
0.0
  0
SEQEND
  8
0
  0
POLYLINE
  8
0
 62
0
 70
0
 66
1
 10
0.0
 20
0.0
 30
0.0
  0
VERTEX
  8
0
 10
41.5327381111
 20
3.11710828847
 30
0.0
  0
VERTEX
  8
0
 10
42.3987635148
 20
3.63710828847
 30
0.0
  0
VERTEX
  8
0
 10
41.5327381111
 20
3.13710828847
 30
0.0
  0
VERTEX
  8
0
 10
35.5991071666
 20
6.56289171153
 30
0.0
  0
VERTEX
  8
0
 10
34.7330817628
 20
6.06289171153
 30
0.0
  0
VERTEX
  8
0
 10
35.5991071666
 20
6.58289171153
 30
0.0
  0
VERTEX
  8
0
 10
35.5991071666
 20
12.8171082885
 30
0.0
  0
VERTEX
  8
0
 10
34.7330817628
 20
13.3371082885
 30
0.0
  0
VERTEX
  8
0
 10
35.5991071666
 20
12.8371082885
 30
0.0
  0
VERTEX
  8
0
 10
41.5327381111
 20
16.2628917115
 30
0.0
  0
VERTEX
  8
0
 10
42.3987635148
 20
15.7628917115
 30
0.0
  0
VERTEX
  8
0
 10
41.5327381111
 20
16.2828917115
 30
0.0
  0
VERTEX
  8
0
 10
41.5327381111
 20
22.5171082885
 30
0.0
  0
VERTEX
  8
0
 10
42.3987635148
 20
23.0371082885
 30
0.0
  0
VERTEX
  8
0
 10
41.5327381111
 20
22.5371082885
 30
0.0
  0
VERTEX
  8
0
 10
35.5991071666
 20
25.9628917115
 30
0.0
  0
VERTEX
  8
0
 10
34.7330817628
 20
25.4628917115
 30
0.0
  0
VERTEX
  8
0
 10
35.5991071666
 20
25.9828917115
 30
0.0
  0
VERTEX
  8
0
 10
35.5991071666
 20
32.2171082885
 30
0.0
  0
VERTEX
  8
0
 10
34.7330817628
 20
32.7371082885
 30
0.0
  0
VERTEX
  8
0
 10
35.5991071666
 20
32.2371082885
 30
0.0
  0
VERTEX
  8
0
 10
41.5327381111
 20
35.6628917115
 30
0.0
  0
VERTEX
  8
0
 10
42.3987635148
 20
35.1628917115
 30
0.0
  0
VERTEX
  8
0
 10
41.5327381111
 20
35.6828917115
 30
0.0
  0
VERTEX
  8
0
 10
41.5327381111
 20
41.9171082885
 30
0.0
  0
VERTEX
  8
0
 10
42.3987635148
 20
42.4371082885
 30
0.0
  0
VERTEX
  8
0
 10
41.5327381111
 20
41.9371082885
 30
0.0
  0
VERTEX
  8
0
 10
35.5991071666
 20
45.3628917115
 30
0.0
  0
VERTEX
  8
0
 10
34.7330817628
 20
44.8628917115
 30
0.0
  0
VERTEX
  8
0
 10
35.5991071666
 20
45.3828917115
 30
0.0
  0
VERTEX
  8
0
 10
35.5991071666
 20
51.6171082885
 30
0.0
  0
VERTEX
  8
0
 10
34.7330817628
 20
52.1371082885
 30
0.0
  0
VERTEX
  8
0
 10
35.5991071666
 20
51.6371082885
 30
0.0
  0
VERTEX
  8
0
 10
41.5327381111
 20
55.0628917115
 30
0.0
  0
VERTEX
  8
0
 10
42.3987635148
 20
54.5628917115
 30
0.0
  0
VERTEX
  8
0
 10
41.5327381111
 20
55.0828917115
 30
0.0
  0
VERTEX
  8
0
 10
41.5327381111
 20
61.3171082885
 30
0.0
  0
VERTEX
  8
0
 10
42.3987635148
 20
61.8371082885
 30
0.0
  0
VERTEX
  8
0
 10
41.5327381111
 20
61.3371082885
 30
0.0
  0
VERTEX
  8
0
 10
35.5991071666
 20
64.7628917115
 30
0.0
  0
VERTEX
  8
0
 10
34.7330817628
 20
64.2628917115
 30
0.0
  0
VERTEX
  8
0
 10
35.5991071666
 20
64.7828917115
 30
0.0
  0
VERTEX
  8
0
 10
35.5991071666
 20
71.0171082885
 30
0.0
  0
VERTEX
  8
0
 10
34.7330817628
 20
71.5371082885
 30
0.0
  0
VERTEX
  8
0
 10
35.5991071666
 20
71.0371082885
 30
0.0
  0
VERTEX
  8
0
 10
41.5327381111
 20
74.4628917115
 30
0.0
  0
VERTEX
  8
0
 10
42.3987635148
 20
73.9628917115
 30
0.0
  0
VERTEX
  8
0
 10
41.5327381111
 20
74.4828917115
 30
0.0
  0
VERTEX
  8
0
 10
41.5327381111
 20
80.7171082885
 30
0.0
  0
VERTEX
  8
0
 10
42.3987635148
 20
81.2371082885
 30
0.0
  0
VERTEX
  8
0
 10
41.5327381111
 20
80.7371082885
 30
0.0
  0
VERTEX
  8
0
 10
35.5991071666
 20
84.1628917115
 30
0.0
  0
VERTEX
  8
0
 10
34.7330817628
 20
83.6628917115
 30
0.0
  0
VERTEX
  8
0
 10
35.5991071666
 20
84.1828917115
 30
0.0
  0
VERTEX
  8
0
 10
35.5991071666
 20
90.4171082885
 30
0.0
  0
VERTEX
  8
0
 10
34.7330817628
 20
90.9371082885
 30
0.0
  0
VERTEX
  8
0
 10
35.5991071666
 20
90.4371082885
 30
0.0
  0
VERTEX
  8
0
 10
41.5327381111
 20
93.8628917115
 30
0.0
  0
VERTEX
  8
0
 10
42.3987635148
 20
93.3628917115
 30
0.0
  0
VERTEX
  8
0
 10
41.5327381111
 20
93.8828917115
 30
0.0
  0
VERTEX
  8
0
 10
41.5327381111
 20
100.117108288
 30
0.0
  0
VERTEX
  8
0
 10
42.3987635148
 20
100.637108288
 30
0.0
  0
VERTEX
  8
0
 10
41.5327381111
 20
100.137108288
 30
0.0
  0
VERTEX
  8
0
 10
35.5991071666
 20
103.562891712
 30
0.0
  0
VERTEX
  8
0
 10
34.7330817628
 20
103.062891712
 30
0.0
  0
VERTEX
  8
0
 10
35.5991071666
 20
103.582891712
 30
0.0
  0
VERTEX
  8
0
 10
35.5991071666
 20
109.817108288
 30
0.0
  0
VERTEX
  8
0
 10
34.7330817628
 20
110.337108288
 30
0.0
  0
VERTEX
  8
0
 10
35.5991071666
 20
109.837108288
 30
0.0
  0
VERTEX
  8
0
 10
41.5327381111
 20
113.262891712
 30
0.0
  0
VERTEX
  8
0
 10
42.3987635148
 20
112.762891712
 30
0.0
  0
VERTEX
  8
0
 10
41.5327381111
 20
113.282891712
 30
0.0
  0
VERTEX
  8
0
 10
41.5327381111
 20
119.517108288
 30
0.0
  0
VERTEX
  8
0
 10
42.3987635148
 20
120.037108288
 30
0.0
  0
VERTEX
  8
0
 10
41.5327381111
 20
119.537108288
 30
0.0
  0
VERTEX
  8
0
 10
35.5991071666
 20
122.962891712
 30
0.0
  0
VERTEX
  8
0
 10
34.7330817628
 20
122.462891712
 30
0.0
  0
VERTEX
  8
0
 10
35.5991071666
 20
122.982891712
 30
0.0
  0
VERTEX
  8
0
 10
35.5991071666
 20
129.217108288
 30
0.0
  0
VERTEX
  8
0
 10
34.7330817628
 20
129.737108288
 30
0.0
  0
VERTEX
  8
0
 10
35.5991071666
 20
129.237108288
 30
0.0
  0
VERTEX
  8
0
 10
41.5327381111
 20
132.662891712
 30
0.0
  0
VERTEX
  8
0
 10
42.3987635148
 20
132.162891712
 30
0.0
  0
VERTEX
  8
0
 10
41.5327381111
 20
132.682891712
 30
0.0
  0
VERTEX
  8
0
 10
41.5327381111
 20
138.917108288
 30
0.0
  0
VERTEX
  8
0
 10
42.3987635148
 20
139.437108288
 30
0.0
  0
VERTEX
  8
0
 10
41.5327381111
 20
138.937108288
 30
0.0
  0
VERTEX
  8
0
 10
35.5991071666
 20
142.362891712
 30
0.0
  0
VERTEX
  8
0
 10
34.7330817628
 20
141.862891712
 30
0.0
  0
VERTEX
  8
0
 10
35.5991071666
 20
142.382891712
 30
0.0
  0
VERTEX
  8
0
 10
35.5991071666
 20
148.617108288
 30
0.0
  0
VERTEX
  8
0
 10
34.7330817628
 20
149.137108288
 30
0.0
  0
VERTEX
  8
0
 10
35.5991071666
 20
148.637108288
 30
0.0
  0
VERTEX
  8
0
 10
41.5327381111
 20
152.062891712
 30
0.0
  0
VERTEX
  8
0
 10
42.3987635148
 20
151.562891712
 30
0.0
  0
VERTEX
  8
0
 10
41.5327381111
 20
152.082891712
 30
0.0
  0
VERTEX
  8
0
 10
41.5327381111
 20
158.317108288
 30
0.0
  0
VERTEX
  8
0
 10
42.3987635148
 20
158.837108288
 30
0.0
  0
VERTEX
  8
0
 10
41.5327381111
 20
158.337108288
 30
0.0
  0
VERTEX
  8
0
 10
35.5991071666
 20
161.762891712
 30
0.0
  0
VERTEX
  8
0
 10
34.7330817628
 20
161.262891712
 30
0.0
  0
VERTEX
  8
0
 10
35.5991071666
 20
161.782891712
 30
0.0
  0
VERTEX
  8
0
 10
26.9388531287
 20
176.762891712
 30
0.0
  0
VERTEX
  8
0
 10
21.0052221843
 20
173.337108288
 30
0.0
  0
VERTEX
  8
0
 10
27.9334254145
 20
161.337108288
 30
0.0
  0
SEQEND
  8
0
  0
POLYLINE
  8
0
 62
0
 70
0
 66
1
 10
0.0
 20
0.0
 30
0.0
  0
VERTEX
  8
0
 10
49.030860363
 20
75.1
 30
0.0
  0
VERTEX
  8
0
 10
49.030860363
 20
80.6
 30
0.0
  0
VERTEX
  8
0
 10
43.8347079403
 20
77.6
 30
0.0
  0
VERTEX
  8
0
 10
49.030860363
 20
74.6
 30
0.0
  0
SEQEND
  8
0
  0
POLYLINE
  8
0
 62
0
 70
0
 66
1
 10
0.0
 20
0.0
 30
0.0
  0
VERTEX
  8
0
 10
37.1644913075
 20
36.3
 30
0.0
  0
VERTEX
  8
0
 10
37.1644913075
 20
41.8
 30
0.0
  0
VERTEX
  8
0
 10
31.9683388848
 20
38.8
 30
0.0
  0
VERTEX
  8
0
 10
37.1644913075
 20
35.8
 30
0.0
  0
SEQEND
  8
0
  0
POLYLINE
  8
0
 62
0
 70
0
 66
1
 10
0.0
 20
0.0
 30
0.0
  0
VERTEX
  8
0
 10
49.030860363
 20
55.7
 30
0.0
  0
VERTEX
  8
0
 10
49.030860363
 20
61.2
 30
0.0
  0
VERTEX
  8
0
 10
43.8347079403
 20
58.2
 30
0.0
  0
VERTEX
  8
0
 10
49.030860363
 20
55.2
 30
0.0
  0
SEQEND
  8
0
  0
POLYLINE
  8
0
 62
0
 70
0
 66
1
 10
0.0
 20
0.0
 30
0.0
  0
VERTEX
  8
0
 10
29.6663690555
 20
3.11710828847
 30
0.0
  0
VERTEX
  8
0
 10
30.5323944593
 20
3.63710828847
 30
0.0
  0
VERTEX
  8
0
 10
29.6663690555
 20
3.13710828847
 30
0.0
  0
VERTEX
  8
0
 10
23.7327381111
 20
6.56289171153
 30
0.0
  0
VERTEX
  8
0
 10
22.8667127073
 20
6.06289171153
 30
0.0
  0
VERTEX
  8
0
 10
23.7327381111
 20
6.58289171153
 30
0.0
  0
VERTEX
  8
0
 10
23.7327381111
 20
12.8171082885
 30
0.0
  0
VERTEX
  8
0
 10
22.8667127073
 20
13.3371082885
 30
0.0
  0
VERTEX
  8
0
 10
23.7327381111
 20
12.8371082885
 30
0.0
  0
VERTEX
  8
0
 10
29.6663690555
 20
16.2628917115
 30
0.0
  0
VERTEX
  8
0
 10
30.5323944593
 20
15.7628917115
 30
0.0
  0
VERTEX
  8
0
 10
29.6663690555
 20
16.2828917115
 30
0.0
  0
VERTEX
  8
0
 10
29.6663690555
 20
22.5171082885
 30
0.0
  0
VERTEX
  8
0
 10
30.5323944593
 20
23.0371082885
 30
0.0
  0
VERTEX
  8
0
 10
29.6663690555
 20
22.5371082885
 30
0.0
  0
VERTEX
  8
0
 10
23.7327381111
 20
25.9628917115
 30
0.0
  0
VERTEX
  8
0
 10
22.8667127073
 20
25.4628917115
 30
0.0
  0
VERTEX
  8
0
 10
23.7327381111
 20
25.9828917115
 30
0.0
  0
VERTEX
  8
0
 10
23.7327381111
 20
32.2171082885
 30
0.0
  0
VERTEX
  8
0
 10
22.8667127073
 20
32.7371082885
 30
0.0
  0
VERTEX
  8
0
 10
23.7327381111
 20
32.2371082885
 30
0.0
  0
VERTEX
  8
0
 10
29.6663690555
 20
35.6628917115
 30
0.0
  0
VERTEX
  8
0
 10
30.5323944593
 20
35.1628917115
 30
0.0
  0
VERTEX
  8
0
 10
29.6663690555
 20
35.6828917115
 30
0.0
  0
VERTEX
  8
0
 10
29.6663690555
 20
41.9171082885
 30
0.0
  0
VERTEX
  8
0
 10
30.5323944593
 20
42.4371082885
 30
0.0
  0
VERTEX
  8
0
 10
29.6663690555
 20
41.9371082885
 30
0.0
  0
VERTEX
  8
0
 10
23.7327381111
 20
45.3628917115
 30
0.0
  0
VERTEX
  8
0
 10
22.8667127073
 20
44.8628917115
 30
0.0
  0
VERTEX
  8
0
 10
23.7327381111
 20
45.3828917115
 30
0.0
  0
VERTEX
  8
0
 10
23.7327381111
 20
51.6171082885
 30
0.0
  0
VERTEX
  8
0
 10
22.8667127073
 20
52.1371082885
 30
0.0
  0
VERTEX
  8
0
 10
23.7327381111
 20
51.6371082885
 30
0.0
  0
VERTEX
  8
0
 10
29.6663690555
 20
55.0628917115
 30
0.0
  0
VERTEX
  8
0
 10
30.5323944593
 20
54.5628917115
 30
0.0
  0
VERTEX
  8
0
 10
29.6663690555
 20
55.0828917115
 30
0.0
  0
VERTEX
  8
0
 10
29.6663690555
 20
61.3171082885
 30
0.0
  0
VERTEX
  8
0
 10
30.5323944593
 20
61.8371082885
 30
0.0
  0
VERTEX
  8
0
 10
29.6663690555
 20
61.3371082885
 30
0.0
  0
VERTEX
  8
0
 10
23.7327381111
 20
64.7628917115
 30
0.0
  0
VERTEX
  8
0
 10
22.8667127073
 20
64.2628917115
 30
0.0
  0
VERTEX
  8
0
 10
23.7327381111
 20
64.7828917115
 30
0.0
  0
VERTEX
  8
0
 10
23.7327381111
 20
71.0171082885
 30
0.0
  0
VERTEX
  8
0
 10
22.8667127073
 20
71.5371082885
 30
0.0
  0
VERTEX
  8
0
 10
23.7327381111
 20
71.0371082885
 30
0.0
  0
VERTEX
  8
0
 10
29.6663690555
 20
74.4628917115
 30
0.0
  0
VERTEX
  8
0
 10
30.5323944593
 20
73.9628917115
 30
0.0
  0
VERTEX
  8
0
 10
29.6663690555
 20
74.4828917115
 30
0.0
  0
VERTEX
  8
0
 10
29.6663690555
 20
80.7171082885
 30
0.0
  0
VERTEX
  8
0
 10
30.5323944593
 20
81.2371082885
 30
0.0
  0
VERTEX
  8
0
 10
29.6663690555
 20
80.7371082885
 30
0.0
  0
VERTEX
  8
0
 10
23.7327381111
 20
84.1628917115
 30
0.0
  0
VERTEX
  8
0
 10
22.8667127073
 20
83.6628917115
 30
0.0
  0
VERTEX
  8
0
 10
23.7327381111
 20
84.1828917115
 30
0.0
  0
VERTEX
  8
0
 10
23.7327381111
 20
90.4171082885
 30
0.0
  0
VERTEX
  8
0
 10
22.8667127073
 20
90.9371082885
 30
0.0
  0
VERTEX
  8
0
 10
23.7327381111
 20
90.4371082885
 30
0.0
  0
VERTEX
  8
0
 10
29.6663690555
 20
93.8628917115
 30
0.0
  0
VERTEX
  8
0
 10
30.5323944593
 20
93.3628917115
 30
0.0
  0
VERTEX
  8
0
 10
29.6663690555
 20
93.8828917115
 30
0.0
  0
VERTEX
  8
0
 10
29.6663690555
 20
100.117108288
 30
0.0
  0
VERTEX
  8
0
 10
30.5323944593
 20
100.637108288
 30
0.0
  0
VERTEX
  8
0
 10
29.6663690555
 20
100.137108288
 30
0.0
  0
VERTEX
  8
0
 10
23.7327381111
 20
103.562891712
 30
0.0
  0
VERTEX
  8
0
 10
22.8667127073
 20
103.062891712
 30
0.0
  0
VERTEX
  8
0
 10
23.7327381111
 20
103.582891712
 30
0.0
  0
VERTEX
  8
0
 10
23.7327381111
 20
109.817108288
 30
0.0
  0
VERTEX
  8
0
 10
22.8667127073
 20
110.337108288
 30
0.0
  0
VERTEX
  8
0
 10
23.7327381111
 20
109.837108288
 30
0.0
  0
VERTEX
  8
0
 10
29.6663690555
 20
113.262891712
 30
0.0
  0
VERTEX
  8
0
 10
30.5323944593
 20
112.762891712
 30
0.0
  0
VERTEX
  8
0
 10
29.6663690555
 20
113.282891712
 30
0.0
  0
VERTEX
  8
0
 10
29.6663690555
 20
119.517108288
 30
0.0
  0
VERTEX
  8
0
 10
30.5323944593
 20
120.037108288
 30
0.0
  0
VERTEX
  8
0
 10
29.6663690555
 20
119.537108288
 30
0.0
  0
VERTEX
  8
0
 10
23.7327381111
 20
122.962891712
 30
0.0
  0
VERTEX
  8
0
 10
22.8667127073
 20
122.462891712
 30
0.0
  0
VERTEX
  8
0
 10
23.7327381111
 20
122.982891712
 30
0.0
  0
VERTEX
  8
0
 10
23.7327381111
 20
129.217108288
 30
0.0
  0
VERTEX
  8
0
 10
22.8667127073
 20
129.737108288
 30
0.0
  0
VERTEX
  8
0
 10
23.7327381111
 20
129.237108288
 30
0.0
  0
VERTEX
  8
0
 10
29.6663690555
 20
132.662891712
 30
0.0
  0
VERTEX
  8
0
 10
30.5323944593
 20
132.162891712
 30
0.0
  0
VERTEX
  8
0
 10
29.6663690555
 20
132.682891712
 30
0.0
  0
VERTEX
  8
0
 10
29.6663690555
 20
138.917108288
 30
0.0
  0
VERTEX
  8
0
 10
30.5323944593
 20
139.437108288
 30
0.0
  0
VERTEX
  8
0
 10
29.6663690555
 20
138.937108288
 30
0.0
  0
VERTEX
  8
0
 10
23.7327381111
 20
142.362891712
 30
0.0
  0
VERTEX
  8
0
 10
22.8667127073
 20
141.862891712
 30
0.0
  0
VERTEX
  8
0
 10
23.7327381111
 20
142.382891712
 30
0.0
  0
VERTEX
  8
0
 10
23.7327381111
 20
148.617108288
 30
0.0
  0
VERTEX
  8
0
 10
22.8667127073
 20
149.137108288
 30
0.0
  0
VERTEX
  8
0
 10
23.7327381111
 20
148.637108288
 30
0.0
  0
VERTEX
  8
0
 10
29.6663690555
 20
152.062891712
 30
0.0
  0
VERTEX
  8
0
 10
30.5323944593
 20
151.562891712
 30
0.0
  0
VERTEX
  8
0
 10
29.6663690555
 20
152.082891712
 30
0.0
  0
VERTEX
  8
0
 10
29.6663690555
 20
158.317108288
 30
0.0
  0
VERTEX
  8
0
 10
30.5323944593
 20
158.837108288
 30
0.0
  0
VERTEX
  8
0
 10
29.6663690555
 20
158.337108288
 30
0.0
  0
VERTEX
  8
0
 10
23.7327381111
 20
161.762891712
 30
0.0
  0
VERTEX
  8
0
 10
22.8667127073
 20
161.262891712
 30
0.0
  0
VERTEX
  8
0
 10
23.7327381111
 20
161.782891712
 30
0.0
  0
VERTEX
  8
0
 10
15.0724840732
 20
176.762891712
 30
0.0
  0
VERTEX
  8
0
 10
9.13885312874
 20
173.337108288
 30
0.0
  0
VERTEX
  8
0
 10
16.067056359
 20
161.337108288
 30
0.0
  0
SEQEND
  8
0
  0
POLYLINE
  8
0
 62
0
 70
0
 66
1
 10
0.0
 20
0.0
 30
0.0
  0
VERTEX
  8
0
 10
28.1009849146
 20
65.4
 30
0.0
  0
VERTEX
  8
0
 10
28.1009849146
 20
70.9
 30
0.0
  0
VERTEX
  8
0
 10
33.2971373373
 20
67.9
 30
0.0
  0
VERTEX
  8
0
 10
28.1009849146
 20
64.9
 30
0.0
  0
SEQEND
  8
0
  0
POLYLINE
  8
0
 62
0
 70
0
 66
1
 10
0.0
 20
0.0
 30
0.0
  0
VERTEX
  8
0
 10
37.1644913075
 20
16.9
 30
0.0
  0
VERTEX
  8
0
 10
37.1644913075
 20
22.4
 30
0.0
  0
VERTEX
  8
0
 10
31.9683388848
 20
19.4
 30
0.0
  0
VERTEX
  8
0
 10
37.1644913075
 20
16.4
 30
0.0
  0
SEQEND
  8
0
  0
POLYLINE
  8
0
 62
0
 70
0
 66
1
 10
0.0
 20
0.0
 30
0.0
  0
VERTEX
  8
0
 10
37.1644913075
 20
75.1
 30
0.0
  0
VERTEX
  8
0
 10
37.1644913075
 20
80.6
 30
0.0
  0
VERTEX
  8
0
 10
31.9683388848
 20
77.6
 30
0.0
  0
VERTEX
  8
0
 10
37.1644913075
 20
74.6
 30
0.0
  0
SEQEND
  8
0
  0
POLYLINE
  8
0
 62
0
 70
0
 66
1
 10
0.0
 20
0.0
 30
0.0
  0
VERTEX
  8
0
 10
28.1009849146
 20
104.2
 30
0.0
  0
VERTEX
  8
0
 10
28.1009849146
 20
109.7
 30
0.0
  0
VERTEX
  8
0
 10
33.2971373373
 20
106.7
 30
0.0
  0
VERTEX
  8
0
 10
28.1009849146
 20
103.7
 30
0.0
  0
SEQEND
  8
0
  0
POLYLINE
  8
0
 62
0
 70
0
 66
1
 10
0.0
 20
0.0
 30
0.0
  0
VERTEX
  8
0
 10
37.1644913075
 20
113.9
 30
0.0
  0
VERTEX
  8
0
 10
37.1644913075
 20
119.4
 30
0.0
  0
VERTEX
  8
0
 10
31.9683388848
 20
116.4
 30
0.0
  0
VERTEX
  8
0
 10
37.1644913075
 20
113.4
 30
0.0
  0
SEQEND
  8
0
  0
POLYLINE
  8
0
 62
0
 70
0
 66
1
 10
0.0
 20
0.0
 30
0.0
  0
VERTEX
  8
0
 10
37.1644913075
 20
133.3
 30
0.0
  0
VERTEX
  8
0
 10
37.1644913075
 20
138.8
 30
0.0
  0
VERTEX
  8
0
 10
31.9683388848
 20
135.8
 30
0.0
  0
VERTEX
  8
0
 10
37.1644913075
 20
132.8
 30
0.0
  0
SEQEND
  8
0
  0
POLYLINE
  8
0
 62
0
 70
0
 66
1
 10
0.0
 20
0.0
 30
0.0
  0
VERTEX
  8
0
 10
28.1009849146
 20
123.6
 30
0.0
  0
VERTEX
  8
0
 10
28.1009849146
 20
129.1
 30
0.0
  0
VERTEX
  8
0
 10
33.2971373373
 20
126.1
 30
0.0
  0
VERTEX
  8
0
 10
28.1009849146
 20
123.1
 30
0.0
  0
SEQEND
  8
0
  0
POLYLINE
  8
0
 62
0
 70
0
 66
1
 10
0.0
 20
0.0
 30
0.0
  0
VERTEX
  8
0
 10
28.1009849146
 20
143.0
 30
0.0
  0
VERTEX
  8
0
 10
28.1009849146
 20
148.5
 30
0.0
  0
VERTEX
  8
0
 10
33.2971373373
 20
145.5
 30
0.0
  0
VERTEX
  8
0
 10
28.1009849146
 20
142.5
 30
0.0
  0
SEQEND
  8
0
  0
POLYLINE
  8
0
 62
0
 70
0
 66
1
 10
0.0
 20
0.0
 30
0.0
  0
VERTEX
  8
0
 10
49.030860363
 20
16.9
 30
0.0
  0
VERTEX
  8
0
 10
49.030860363
 20
22.4
 30
0.0
  0
VERTEX
  8
0
 10
43.8347079403
 20
19.4
 30
0.0
  0
VERTEX
  8
0
 10
49.030860363
 20
16.4
 30
0.0
  0
SEQEND
  8
0
  0
POLYLINE
  8
0
 62
0
 70
0
 66
1
 10
0.0
 20
0.0
 30
0.0
  0
VERTEX
  8
0
 10
39.9673539702
 20
26.6
 30
0.0
  0
VERTEX
  8
0
 10
39.9673539702
 20
32.1
 30
0.0
  0
VERTEX
  8
0
 10
45.1635063929
 20
29.1
 30
0.0
  0
VERTEX
  8
0
 10
39.9673539702
 20
26.1
 30
0.0
  0
SEQEND
  8
0
  0
POLYLINE
  8
0
 62
0
 70
0
 66
1
 10
0.0
 20
0.0
 30
0.0
  0
VERTEX
  8
0
 10
37.1644913075
 20
94.5
 30
0.0
  0
VERTEX
  8
0
 10
37.1644913075
 20
100.0
 30
0.0
  0
VERTEX
  8
0
 10
31.9683388848
 20
97.0
 30
0.0
  0
VERTEX
  8
0
 10
37.1644913075
 20
94.0
 30
0.0
  0
SEQEND
  8
0
  0
POLYLINE
  8
0
 62
0
 70
0
 66
1
 10
0.0
 20
0.0
 30
0.0
  0
VERTEX
  8
0
 10
49.030860363
 20
36.3
 30
0.0
  0
VERTEX
  8
0
 10
49.030860363
 20
41.8
 30
0.0
  0
VERTEX
  8
0
 10
43.8347079403
 20
38.8
 30
0.0
  0
VERTEX
  8
0
 10
49.030860363
 20
35.8
 30
0.0
  0
SEQEND
  8
0
  0
POLYLINE
  8
0
 62
0
 70
0
 66
1
 10
0.0
 20
0.0
 30
0.0
  0
VERTEX
  8
0
 10
28.1009849146
 20
46.0
 30
0.0
  0
VERTEX
  8
0
 10
28.1009849146
 20
51.5
 30
0.0
  0
VERTEX
  8
0
 10
33.2971373373
 20
48.5
 30
0.0
  0
VERTEX
  8
0
 10
28.1009849146
 20
45.5
 30
0.0
  0
SEQEND
  8
0
  0
POLYLINE
  8
0
 62
0
 70
0
 66
1
 10
0.0
 20
0.0
 30
0.0
  0
VERTEX
  8
0
 10
39.9673539702
 20
46.0
 30
0.0
  0
VERTEX
  8
0
 10
39.9673539702
 20
51.5
 30
0.0
  0
VERTEX
  8
0
 10
45.1635063929
 20
48.5
 30
0.0
  0
VERTEX
  8
0
 10
39.9673539702
 20
45.5
 30
0.0
  0
SEQEND
  8
0
  0
POLYLINE
  8
0
 62
0
 70
0
 66
1
 10
0.0
 20
0.0
 30
0.0
  0
VERTEX
  8
0
 10
37.1644913075
 20
152.7
 30
0.0
  0
VERTEX
  8
0
 10
37.1644913075
 20
158.2
 30
0.0
  0
VERTEX
  8
0
 10
31.9683388848
 20
155.2
 30
0.0
  0
VERTEX
  8
0
 10
37.1644913075
 20
152.2
 30
0.0
  0
SEQEND
  8
0
  0
POLYLINE
  8
0
 62
0
 70
0
 66
1
 10
0.0
 20
0.0
 30
0.0
  0
VERTEX
  8
0
 10
39.9673539702
 20
7.2
 30
0.0
  0
VERTEX
  8
0
 10
39.9673539702
 20
12.7
 30
0.0
  0
VERTEX
  8
0
 10
45.1635063929
 20
9.7
 30
0.0
  0
VERTEX
  8
0
 10
39.9673539702
 20
6.7
 30
0.0
  0
SEQEND
  8
0
  0
POLYLINE
  8
0
 62
0
 70
0
 66
1
 10
0.0
 20
0.0
 30
0.0
  0
VERTEX
  8
0
 10
28.1009849146
 20
84.8
 30
0.0
  0
VERTEX
  8
0
 10
28.1009849146
 20
90.3
 30
0.0
  0
VERTEX
  8
0
 10
33.2971373373
 20
87.3
 30
0.0
  0
VERTEX
  8
0
 10
28.1009849146
 20
84.3
 30
0.0
  0
SEQEND
  8
0
  0
POLYLINE
  8
0
 62
0
 70
0
 66
1
 10
0.0
 20
0.0
 30
0.0
  0
VERTEX
  8
0
 10
39.9673539702
 20
65.4
 30
0.0
  0
VERTEX
  8
0
 10
39.9673539702
 20
70.9
 30
0.0
  0
VERTEX
  8
0
 10
45.1635063929
 20
67.9
 30
0.0
  0
VERTEX
  8
0
 10
39.9673539702
 20
64.9
 30
0.0
  0
SEQEND
  8
0
  0
POLYLINE
  8
0
 62
0
 70
0
 66
1
 10
0.0
 20
0.0
 30
0.0
  0
VERTEX
  8
0
 10
51.8337230257
 20
104.2
 30
0.0
  0
VERTEX
  8
0
 10
51.8337230257
 20
109.7
 30
0.0
  0
VERTEX
  8
0
 10
57.0298754484
 20
106.7
 30
0.0
  0
VERTEX
  8
0
 10
51.8337230257
 20
103.7
 30
0.0
  0
SEQEND
  8
0
  0
POLYLINE
  8
0
 62
0
 70
0
 66
1
 10
0.0
 20
0.0
 30
0.0
  0
VERTEX
  8
0
 10
49.030860363
 20
94.5
 30
0.0
  0
VERTEX
  8
0
 10
49.030860363
 20
100.0
 30
0.0
  0
VERTEX
  8
0
 10
43.8347079403
 20
97.0
 30
0.0
  0
VERTEX
  8
0
 10
49.030860363
 20
94.0
 30
0.0
  0
SEQEND
  8
0
  0
POLYLINE
  8
0
 62
0
 70
0
 66
1
 10
0.0
 20
0.0
 30
0.0
  0
VERTEX
  8
0
 10
49.030860363
 20
133.3
 30
0.0
  0
VERTEX
  8
0
 10
49.030860363
 20
138.8
 30
0.0
  0
VERTEX
  8
0
 10
43.8347079403
 20
135.8
 30
0.0
  0
VERTEX
  8
0
 10
49.030860363
 20
132.8
 30
0.0
  0
SEQEND
  8
0
  0
POLYLINE
  8
0
 62
0
 70
0
 66
1
 10
0.0
 20
0.0
 30
0.0
  0
VERTEX
  8
0
 10
60.8972294185
 20
16.9
 30
0.0
  0
VERTEX
  8
0
 10
60.8972294185
 20
22.4
 30
0.0
  0
VERTEX
  8
0
 10
55.7010769958
 20
19.4
 30
0.0
  0
VERTEX
  8
0
 10
60.8972294185
 20
16.4
 30
0.0
  0
SEQEND
  8
0
  0
POLYLINE
  8
0
 62
0
 70
0
 66
1
 10
0.0
 20
0.0
 30
0.0
  0
VERTEX
  8
0
 10
39.9673539702
 20
104.2
 30
0.0
  0
VERTEX
  8
0
 10
39.9673539702
 20
109.7
 30
0.0
  0
VERTEX
  8
0
 10
45.1635063929
 20
106.7
 30
0.0
  0
VERTEX
  8
0
 10
39.9673539702
 20
103.7
 30
0.0
  0
SEQEND
  8
0
  0
POLYLINE
  8
0
 62
0
 70
0
 66
1
 10
0.0
 20
0.0
 30
0.0
  0
VERTEX
  8
0
 10
51.8337230257
 20
46.0
 30
0.0
  0
VERTEX
  8
0
 10
51.8337230257
 20
51.5
 30
0.0
  0
VERTEX
  8
0
 10
57.0298754484
 20
48.5
 30
0.0
  0
VERTEX
  8
0
 10
51.8337230257
 20
45.5
 30
0.0
  0
SEQEND
  8
0
  0
POLYLINE
  8
0
 62
0
 70
0
 66
1
 10
0.0
 20
0.0
 30
0.0
  0
VERTEX
  8
0
 10
60.8972294185
 20
55.7
 30
0.0
  0
VERTEX
  8
0
 10
60.8972294185
 20
61.2
 30
0.0
  0
VERTEX
  8
0
 10
55.7010769958
 20
58.2
 30
0.0
  0
VERTEX
  8
0
 10
60.8972294185
 20
55.2
 30
0.0
  0
SEQEND
  8
0
  0
POLYLINE
  8
0
 62
0
 70
0
 66
1
 10
0.0
 20
0.0
 30
0.0
  0
VERTEX
  8
0
 10
51.8337230257
 20
65.4
 30
0.0
  0
VERTEX
  8
0
 10
51.8337230257
 20
70.9
 30
0.0
  0
VERTEX
  8
0
 10
57.0298754484
 20
67.9
 30
0.0
  0
VERTEX
  8
0
 10
51.8337230257
 20
64.9
 30
0.0
  0
SEQEND
  8
0
  0
POLYLINE
  8
0
 62
0
 70
0
 66
1
 10
0.0
 20
0.0
 30
0.0
  0
VERTEX
  8
0
 10
51.8337230257
 20
26.6
 30
0.0
  0
VERTEX
  8
0
 10
51.8337230257
 20
32.1
 30
0.0
  0
VERTEX
  8
0
 10
57.0298754484
 20
29.1
 30
0.0
  0
VERTEX
  8
0
 10
51.8337230257
 20
26.1
 30
0.0
  0
SEQEND
  8
0
  0
POLYLINE
  8
0
 62
0
 70
0
 66
1
 10
0.0
 20
0.0
 30
0.0
  0
VERTEX
  8
0
 10
49.030860363
 20
113.9
 30
0.0
  0
VERTEX
  8
0
 10
49.030860363
 20
119.4
 30
0.0
  0
VERTEX
  8
0
 10
43.8347079403
 20
116.4
 30
0.0
  0
VERTEX
  8
0
 10
49.030860363
 20
113.4
 30
0.0
  0
SEQEND
  8
0
  0
POLYLINE
  8
0
 62
0
 70
0
 66
1
 10
0.0
 20
0.0
 30
0.0
  0
VERTEX
  8
0
 10
60.8972294185
 20
36.3
 30
0.0
  0
VERTEX
  8
0
 10
60.8972294185
 20
41.8
 30
0.0
  0
VERTEX
  8
0
 10
55.7010769958
 20
38.8
 30
0.0
  0
VERTEX
  8
0
 10
60.8972294185
 20
35.8
 30
0.0
  0
SEQEND
  8
0
  0
POLYLINE
  8
0
 62
0
 70
0
 66
1
 10
0.0
 20
0.0
 30
0.0
  0
VERTEX
  8
0
 10
39.9673539702
 20
123.6
 30
0.0
  0
VERTEX
  8
0
 10
39.9673539702
 20
129.1
 30
0.0
  0
VERTEX
  8
0
 10
45.1635063929
 20
126.1
 30
0.0
  0
VERTEX
  8
0
 10
39.9673539702
 20
123.1
 30
0.0
  0
SEQEND
  8
0
  0
POLYLINE
  8
0
 62
0
 70
0
 66
1
 10
0.0
 20
0.0
 30
0.0
  0
VERTEX
  8
0
 10
39.9673539702
 20
143.0
 30
0.0
  0
VERTEX
  8
0
 10
39.9673539702
 20
148.5
 30
0.0
  0
VERTEX
  8
0
 10
45.1635063929
 20
145.5
 30
0.0
  0
VERTEX
  8
0
 10
39.9673539702
 20
142.5
 30
0.0
  0
SEQEND
  8
0
  0
POLYLINE
  8
0
 62
0
 70
0
 66
1
 10
0.0
 20
0.0
 30
0.0
  0
VERTEX
  8
0
 10
49.030860363
 20
152.7
 30
0.0
  0
VERTEX
  8
0
 10
49.030860363
 20
158.2
 30
0.0
  0
VERTEX
  8
0
 10
43.8347079403
 20
155.2
 30
0.0
  0
VERTEX
  8
0
 10
49.030860363
 20
152.2
 30
0.0
  0
SEQEND
  8
0
  0
POLYLINE
  8
0
 62
0
 70
0
 66
1
 10
0.0
 20
0.0
 30
0.0
  0
VERTEX
  8
0
 10
51.8337230257
 20
84.8
 30
0.0
  0
VERTEX
  8
0
 10
51.8337230257
 20
90.3
 30
0.0
  0
VERTEX
  8
0
 10
57.0298754484
 20
87.3
 30
0.0
  0
VERTEX
  8
0
 10
51.8337230257
 20
84.3
 30
0.0
  0
SEQEND
  8
0
  0
POLYLINE
  8
0
 62
0
 70
0
 66
1
 10
0.0
 20
0.0
 30
0.0
  0
VERTEX
  8
0
 10
53.3991071666
 20
3.11710828847
 30
0.0
  0
VERTEX
  8
0
 10
54.2651325704
 20
3.63710828847
 30
0.0
  0
VERTEX
  8
0
 10
53.3991071666
 20
3.13710828847
 30
0.0
  0
VERTEX
  8
0
 10
47.4654762221
 20
6.56289171153
 30
0.0
  0
VERTEX
  8
0
 10
46.5994508183
 20
6.06289171153
 30
0.0
  0
VERTEX
  8
0
 10
47.4654762221
 20
6.58289171153
 30
0.0
  0
VERTEX
  8
0
 10
47.4654762221
 20
12.8171082885
 30
0.0
  0
VERTEX
  8
0
 10
46.5994508183
 20
13.3371082885
 30
0.0
  0
VERTEX
  8
0
 10
47.4654762221
 20
12.8371082885
 30
0.0
  0
VERTEX
  8
0
 10
53.3991071666
 20
16.2628917115
 30
0.0
  0
VERTEX
  8
0
 10
54.2651325704
 20
15.7628917115
 30
0.0
  0
VERTEX
  8
0
 10
53.3991071666
 20
16.2828917115
 30
0.0
  0
VERTEX
  8
0
 10
53.3991071666
 20
22.5171082885
 30
0.0
  0
VERTEX
  8
0
 10
54.2651325704
 20
23.0371082885
 30
0.0
  0
VERTEX
  8
0
 10
53.3991071666
 20
22.5371082885
 30
0.0
  0
VERTEX
  8
0
 10
47.4654762221
 20
25.9628917115
 30
0.0
  0
VERTEX
  8
0
 10
46.5994508183
 20
25.4628917115
 30
0.0
  0
VERTEX
  8
0
 10
47.4654762221
 20
25.9828917115
 30
0.0
  0
VERTEX
  8
0
 10
47.4654762221
 20
32.2171082885
 30
0.0
  0
VERTEX
  8
0
 10
46.5994508183
 20
32.7371082885
 30
0.0
  0
VERTEX
  8
0
 10
47.4654762221
 20
32.2371082885
 30
0.0
  0
VERTEX
  8
0
 10
53.3991071666
 20
35.6628917115
 30
0.0
  0
VERTEX
  8
0
 10
54.2651325704
 20
35.1628917115
 30
0.0
  0
VERTEX
  8
0
 10
53.3991071666
 20
35.6828917115
 30
0.0
  0
VERTEX
  8
0
 10
53.3991071666
 20
41.9171082885
 30
0.0
  0
VERTEX
  8
0
 10
54.2651325704
 20
42.4371082885
 30
0.0
  0
VERTEX
  8
0
 10
53.3991071666
 20
41.9371082885
 30
0.0
  0
VERTEX
  8
0
 10
47.4654762221
 20
45.3628917115
 30
0.0
  0
VERTEX
  8
0
 10
46.5994508183
 20
44.8628917115
 30
0.0
  0
VERTEX
  8
0
 10
47.4654762221
 20
45.3828917115
 30
0.0
  0
VERTEX
  8
0
 10
47.4654762221
 20
51.6171082885
 30
0.0
  0
VERTEX
  8
0
 10
46.5994508183
 20
52.1371082885
 30
0.0
  0
VERTEX
  8
0
 10
47.4654762221
 20
51.6371082885
 30
0.0
  0
VERTEX
  8
0
 10
53.3991071666
 20
55.0628917115
 30
0.0
  0
VERTEX
  8
0
 10
54.2651325704
 20
54.5628917115
 30
0.0
  0
VERTEX
  8
0
 10
53.3991071666
 20
55.0828917115
 30
0.0
  0
VERTEX
  8
0
 10
53.3991071666
 20
61.3171082885
 30
0.0
  0
VERTEX
  8
0
 10
54.2651325704
 20
61.8371082885
 30
0.0
  0
VERTEX
  8
0
 10
53.3991071666
 20
61.3371082885
 30
0.0
  0
VERTEX
  8
0
 10
47.4654762221
 20
64.7628917115
 30
0.0
  0
VERTEX
  8
0
 10
46.5994508183
 20
64.2628917115
 30
0.0
  0
VERTEX
  8
0
 10
47.4654762221
 20
64.7828917115
 30
0.0
  0
VERTEX
  8
0
 10
47.4654762221
 20
71.0171082885
 30
0.0
  0
VERTEX
  8
0
 10
46.5994508183
 20
71.5371082885
 30
0.0
  0
VERTEX
  8
0
 10
47.4654762221
 20
71.0371082885
 30
0.0
  0
VERTEX
  8
0
 10
53.3991071666
 20
74.4628917115
 30
0.0
  0
VERTEX
  8
0
 10
54.2651325704
 20
73.9628917115
 30
0.0
  0
VERTEX
  8
0
 10
53.3991071666
 20
74.4828917115
 30
0.0
  0
VERTEX
  8
0
 10
53.3991071666
 20
80.7171082885
 30
0.0
  0
VERTEX
  8
0
 10
54.2651325704
 20
81.2371082885
 30
0.0
  0
VERTEX
  8
0
 10
53.3991071666
 20
80.7371082885
 30
0.0
  0
VERTEX
  8
0
 10
47.4654762221
 20
84.1628917115
 30
0.0
  0
VERTEX
  8
0
 10
46.5994508183
 20
83.6628917115
 30
0.0
  0
VERTEX
  8
0
 10
47.4654762221
 20
84.1828917115
 30
0.0
  0
VERTEX
  8
0
 10
47.4654762221
 20
90.4171082885
 30
0.0
  0
VERTEX
  8
0
 10
46.5994508183
 20
90.9371082885
 30
0.0
  0
VERTEX
  8
0
 10
47.4654762221
 20
90.4371082885
 30
0.0
  0
VERTEX
  8
0
 10
53.3991071666
 20
93.8628917115
 30
0.0
  0
VERTEX
  8
0
 10
54.2651325704
 20
93.3628917115
 30
0.0
  0
VERTEX
  8
0
 10
53.3991071666
 20
93.8828917115
 30
0.0
  0
VERTEX
  8
0
 10
53.3991071666
 20
100.117108288
 30
0.0
  0
VERTEX
  8
0
 10
54.2651325704
 20
100.637108288
 30
0.0
  0
VERTEX
  8
0
 10
53.3991071666
 20
100.137108288
 30
0.0
  0
VERTEX
  8
0
 10
47.4654762221
 20
103.562891712
 30
0.0
  0
VERTEX
  8
0
 10
46.5994508183
 20
103.062891712
 30
0.0
  0
VERTEX
  8
0
 10
47.4654762221
 20
103.582891712
 30
0.0
  0
VERTEX
  8
0
 10
47.4654762221
 20
109.817108288
 30
0.0
  0
VERTEX
  8
0
 10
46.5994508183
 20
110.337108288
 30
0.0
  0
VERTEX
  8
0
 10
47.4654762221
 20
109.837108288
 30
0.0
  0
VERTEX
  8
0
 10
53.3991071666
 20
113.262891712
 30
0.0
  0
VERTEX
  8
0
 10
54.2651325704
 20
112.762891712
 30
0.0
  0
VERTEX
  8
0
 10
53.3991071666
 20
113.282891712
 30
0.0
  0
VERTEX
  8
0
 10
53.3991071666
 20
119.517108288
 30
0.0
  0
VERTEX
  8
0
 10
54.2651325704
 20
120.037108288
 30
0.0
  0
VERTEX
  8
0
 10
53.3991071666
 20
119.537108288
 30
0.0
  0
VERTEX
  8
0
 10
47.4654762221
 20
122.962891712
 30
0.0
  0
VERTEX
  8
0
 10
46.5994508183
 20
122.462891712
 30
0.0
  0
VERTEX
  8
0
 10
47.4654762221
 20
122.982891712
 30
0.0
  0
VERTEX
  8
0
 10
47.4654762221
 20
129.217108288
 30
0.0
  0
VERTEX
  8
0
 10
46.5994508183
 20
129.737108288
 30
0.0
  0
VERTEX
  8
0
 10
47.4654762221
 20
129.237108288
 30
0.0
  0
VERTEX
  8
0
 10
53.3991071666
 20
132.662891712
 30
0.0
  0
VERTEX
  8
0
 10
54.2651325704
 20
132.162891712
 30
0.0
  0
VERTEX
  8
0
 10
53.3991071666
 20
132.682891712
 30
0.0
  0
VERTEX
  8
0
 10
53.3991071666
 20
138.917108288
 30
0.0
  0
VERTEX
  8
0
 10
54.2651325704
 20
139.437108288
 30
0.0
  0
VERTEX
  8
0
 10
53.3991071666
 20
138.937108288
 30
0.0
  0
VERTEX
  8
0
 10
47.4654762221
 20
142.362891712
 30
0.0
  0
VERTEX
  8
0
 10
46.5994508183
 20
141.862891712
 30
0.0
  0
VERTEX
  8
0
 10
47.4654762221
 20
142.382891712
 30
0.0
  0
VERTEX
  8
0
 10
47.4654762221
 20
148.617108288
 30
0.0
  0
VERTEX
  8
0
 10
46.5994508183
 20
149.137108288
 30
0.0
  0
VERTEX
  8
0
 10
47.4654762221
 20
148.637108288
 30
0.0
  0
VERTEX
  8
0
 10
53.3991071666
 20
152.062891712
 30
0.0
  0
VERTEX
  8
0
 10
54.2651325704
 20
151.562891712
 30
0.0
  0
VERTEX
  8
0
 10
53.3991071666
 20
152.082891712
 30
0.0
  0
VERTEX
  8
0
 10
53.3991071666
 20
158.317108288
 30
0.0
  0
VERTEX
  8
0
 10
54.2651325704
 20
158.837108288
 30
0.0
  0
VERTEX
  8
0
 10
53.3991071666
 20
158.337108288
 30
0.0
  0
VERTEX
  8
0
 10
47.4654762221
 20
161.762891712
 30
0.0
  0
VERTEX
  8
0
 10
46.5994508183
 20
161.262891712
 30
0.0
  0
VERTEX
  8
0
 10
47.4654762221
 20
161.782891712
 30
0.0
  0
VERTEX
  8
0
 10
38.8052221843
 20
176.762891712
 30
0.0
  0
VERTEX
  8
0
 10
32.8715912398
 20
173.337108288
 30
0.0
  0
VERTEX
  8
0
 10
39.7997944701
 20
161.337108288
 30
0.0
  0
SEQEND
  8
0
  0
POLYLINE
  8
0
 62
0
 70
0
 66
1
 10
0.0
 20
0.0
 30
0.0
  0
VERTEX
  8
0
 10
60.8972294185
 20
94.5
 30
0.0
  0
VERTEX
  8
0
 10
60.8972294185
 20
100.0
 30
0.0
  0
VERTEX
  8
0
 10
55.7010769958
 20
97.0
 30
0.0
  0
VERTEX
  8
0
 10
60.8972294185
 20
94.0
 30
0.0
  0
SEQEND
  8
0
  0
POLYLINE
  8
0
 62
0
 70
0
 66
1
 10
0.0
 20
0.0
 30
0.0
  0
VERTEX
  8
0
 10
72.7635984741
 20
55.7
 30
0.0
  0
VERTEX
  8
0
 10
72.7635984741
 20
61.2
 30
0.0
  0
VERTEX
  8
0
 10
67.5674460514
 20
58.2
 30
0.0
  0
VERTEX
  8
0
 10
72.7635984741
 20
55.2
 30
0.0
  0
SEQEND
  8
0
  0
POLYLINE
  8
0
 62
0
 70
0
 66
1
 10
0.0
 20
0.0
 30
0.0
  0
VERTEX
  8
0
 10
39.9673539702
 20
84.8
 30
0.0
  0
VERTEX
  8
0
 10
39.9673539702
 20
90.3
 30
0.0
  0
VERTEX
  8
0
 10
45.1635063929
 20
87.3
 30
0.0
  0
VERTEX
  8
0
 10
39.9673539702
 20
84.3
 30
0.0
  0
SEQEND
  8
0
  0
POLYLINE
  8
0
 62
0
 70
0
 66
1
 10
0.0
 20
0.0
 30
0.0
  0
VERTEX
  8
0
 10
63.7000920812
 20
65.4
 30
0.0
  0
VERTEX
  8
0
 10
63.7000920812
 20
70.9
 30
0.0
  0
VERTEX
  8
0
 10
68.8962445039
 20
67.9
 30
0.0
  0
VERTEX
  8
0
 10
63.7000920812
 20
64.9
 30
0.0
  0
SEQEND
  8
0
  0
POLYLINE
  8
0
 62
0
 70
0
 66
1
 10
0.0
 20
0.0
 30
0.0
  0
VERTEX
  8
0
 10
60.8972294185
 20
75.1
 30
0.0
  0
VERTEX
  8
0
 10
60.8972294185
 20
80.6
 30
0.0
  0
VERTEX
  8
0
 10
55.7010769958
 20
77.6
 30
0.0
  0
VERTEX
  8
0
 10
60.8972294185
 20
74.6
 30
0.0
  0
SEQEND
  8
0
  0
POLYLINE
  8
0
 62
0
 70
0
 66
1
 10
0.0
 20
0.0
 30
0.0
  0
VERTEX
  8
0
 10
51.8337230257
 20
7.2
 30
0.0
  0
VERTEX
  8
0
 10
51.8337230257
 20
12.7
 30
0.0
  0
VERTEX
  8
0
 10
57.0298754484
 20
9.7
 30
0.0
  0
VERTEX
  8
0
 10
51.8337230257
 20
6.7
 30
0.0
  0
SEQEND
  8
0
  0
POLYLINE
  8
0
 62
0
 70
0
 66
1
 10
0.0
 20
0.0
 30
0.0
  0
VERTEX
  8
0
 10
51.8337230257
 20
123.6
 30
0.0
  0
VERTEX
  8
0
 10
51.8337230257
 20
129.1
 30
0.0
  0
VERTEX
  8
0
 10
57.0298754484
 20
126.1
 30
0.0
  0
VERTEX
  8
0
 10
51.8337230257
 20
123.1
 30
0.0
  0
SEQEND
  8
0
  0
POLYLINE
  8
0
 62
0
 70
0
 66
1
 10
0.0
 20
0.0
 30
0.0
  0
VERTEX
  8
0
 10
65.2654762221
 20
3.11710828847
 30
0.0
  0
VERTEX
  8
0
 10
66.1315016259
 20
3.63710828847
 30
0.0
  0
VERTEX
  8
0
 10
65.2654762221
 20
3.13710828847
 30
0.0
  0
VERTEX
  8
0
 10
59.3318452776
 20
6.56289171153
 30
0.0
  0
VERTEX
  8
0
 10
58.4658198739
 20
6.06289171153
 30
0.0
  0
VERTEX
  8
0
 10
59.3318452776
 20
6.58289171153
 30
0.0
  0
VERTEX
  8
0
 10
59.3318452776
 20
12.8171082885
 30
0.0
  0
VERTEX
  8
0
 10
58.4658198739
 20
13.3371082885
 30
0.0
  0
VERTEX
  8
0
 10
59.3318452776
 20
12.8371082885
 30
0.0
  0
VERTEX
  8
0
 10
65.2654762221
 20
16.2628917115
 30
0.0
  0
VERTEX
  8
0
 10
66.1315016259
 20
15.7628917115
 30
0.0
  0
VERTEX
  8
0
 10
65.2654762221
 20
16.2828917115
 30
0.0
  0
VERTEX
  8
0
 10
65.2654762221
 20
22.5171082885
 30
0.0
  0
VERTEX
  8
0
 10
66.1315016259
 20
23.0371082885
 30
0.0
  0
VERTEX
  8
0
 10
65.2654762221
 20
22.5371082885
 30
0.0
  0
VERTEX
  8
0
 10
59.3318452776
 20
25.9628917115
 30
0.0
  0
VERTEX
  8
0
 10
58.4658198739
 20
25.4628917115
 30
0.0
  0
VERTEX
  8
0
 10
59.3318452776
 20
25.9828917115
 30
0.0
  0
VERTEX
  8
0
 10
59.3318452776
 20
32.2171082885
 30
0.0
  0
VERTEX
  8
0
 10
58.4658198739
 20
32.7371082885
 30
0.0
  0
VERTEX
  8
0
 10
59.3318452776
 20
32.2371082885
 30
0.0
  0
VERTEX
  8
0
 10
65.2654762221
 20
35.6628917115
 30
0.0
  0
VERTEX
  8
0
 10
66.1315016259
 20
35.1628917115
 30
0.0
  0
VERTEX
  8
0
 10
65.2654762221
 20
35.6828917115
 30
0.0
  0
VERTEX
  8
0
 10
65.2654762221
 20
41.9171082885
 30
0.0
  0
VERTEX
  8
0
 10
66.1315016259
 20
42.4371082885
 30
0.0
  0
VERTEX
  8
0
 10
65.2654762221
 20
41.9371082885
 30
0.0
  0
VERTEX
  8
0
 10
59.3318452776
 20
45.3628917115
 30
0.0
  0
VERTEX
  8
0
 10
58.4658198739
 20
44.8628917115
 30
0.0
  0
VERTEX
  8
0
 10
59.3318452776
 20
45.3828917115
 30
0.0
  0
VERTEX
  8
0
 10
59.3318452776
 20
51.6171082885
 30
0.0
  0
VERTEX
  8
0
 10
58.4658198739
 20
52.1371082885
 30
0.0
  0
VERTEX
  8
0
 10
59.3318452776
 20
51.6371082885
 30
0.0
  0
VERTEX
  8
0
 10
65.2654762221
 20
55.0628917115
 30
0.0
  0
VERTEX
  8
0
 10
66.1315016259
 20
54.5628917115
 30
0.0
  0
VERTEX
  8
0
 10
65.2654762221
 20
55.0828917115
 30
0.0
  0
VERTEX
  8
0
 10
65.2654762221
 20
61.3171082885
 30
0.0
  0
VERTEX
  8
0
 10
66.1315016259
 20
61.8371082885
 30
0.0
  0
VERTEX
  8
0
 10
65.2654762221
 20
61.3371082885
 30
0.0
  0
VERTEX
  8
0
 10
59.3318452776
 20
64.7628917115
 30
0.0
  0
VERTEX
  8
0
 10
58.4658198739
 20
64.2628917115
 30
0.0
  0
VERTEX
  8
0
 10
59.3318452776
 20
64.7828917115
 30
0.0
  0
VERTEX
  8
0
 10
59.3318452776
 20
71.0171082885
 30
0.0
  0
VERTEX
  8
0
 10
58.4658198739
 20
71.5371082885
 30
0.0
  0
VERTEX
  8
0
 10
59.3318452776
 20
71.0371082885
 30
0.0
  0
VERTEX
  8
0
 10
65.2654762221
 20
74.4628917115
 30
0.0
  0
VERTEX
  8
0
 10
66.1315016259
 20
73.9628917115
 30
0.0
  0
VERTEX
  8
0
 10
65.2654762221
 20
74.4828917115
 30
0.0
  0
VERTEX
  8
0
 10
65.2654762221
 20
80.7171082885
 30
0.0
  0
VERTEX
  8
0
 10
66.1315016259
 20
81.2371082885
 30
0.0
  0
VERTEX
  8
0
 10
65.2654762221
 20
80.7371082885
 30
0.0
  0
VERTEX
  8
0
 10
59.3318452776
 20
84.1628917115
 30
0.0
  0
VERTEX
  8
0
 10
58.4658198739
 20
83.6628917115
 30
0.0
  0
VERTEX
  8
0
 10
59.3318452776
 20
84.1828917115
 30
0.0
  0
VERTEX
  8
0
 10
59.3318452776
 20
90.4171082885
 30
0.0
  0
VERTEX
  8
0
 10
58.4658198739
 20
90.9371082885
 30
0.0
  0
VERTEX
  8
0
 10
59.3318452776
 20
90.4371082885
 30
0.0
  0
VERTEX
  8
0
 10
65.2654762221
 20
93.8628917115
 30
0.0
  0
VERTEX
  8
0
 10
66.1315016259
 20
93.3628917115
 30
0.0
  0
VERTEX
  8
0
 10
65.2654762221
 20
93.8828917115
 30
0.0
  0
VERTEX
  8
0
 10
65.2654762221
 20
100.117108288
 30
0.0
  0
VERTEX
  8
0
 10
66.1315016259
 20
100.637108288
 30
0.0
  0
VERTEX
  8
0
 10
65.2654762221
 20
100.137108288
 30
0.0
  0
VERTEX
  8
0
 10
59.3318452776
 20
103.562891712
 30
0.0
  0
VERTEX
  8
0
 10
58.4658198739
 20
103.062891712
 30
0.0
  0
VERTEX
  8
0
 10
59.3318452776
 20
103.582891712
 30
0.0
  0
VERTEX
  8
0
 10
59.3318452776
 20
109.817108288
 30
0.0
  0
VERTEX
  8
0
 10
58.4658198739
 20
110.337108288
 30
0.0
  0
VERTEX
  8
0
 10
59.3318452776
 20
109.837108288
 30
0.0
  0
VERTEX
  8
0
 10
65.2654762221
 20
113.262891712
 30
0.0
  0
VERTEX
  8
0
 10
66.1315016259
 20
112.762891712
 30
0.0
  0
VERTEX
  8
0
 10
65.2654762221
 20
113.282891712
 30
0.0
  0
VERTEX
  8
0
 10
65.2654762221
 20
119.517108288
 30
0.0
  0
VERTEX
  8
0
 10
66.1315016259
 20
120.037108288
 30
0.0
  0
VERTEX
  8
0
 10
65.2654762221
 20
119.537108288
 30
0.0
  0
VERTEX
  8
0
 10
59.3318452776
 20
122.962891712
 30
0.0
  0
VERTEX
  8
0
 10
58.4658198739
 20
122.462891712
 30
0.0
  0
VERTEX
  8
0
 10
59.3318452776
 20
122.982891712
 30
0.0
  0
VERTEX
  8
0
 10
59.3318452776
 20
129.217108288
 30
0.0
  0
VERTEX
  8
0
 10
58.4658198739
 20
129.737108288
 30
0.0
  0
VERTEX
  8
0
 10
59.3318452776
 20
129.237108288
 30
0.0
  0
VERTEX
  8
0
 10
65.2654762221
 20
132.662891712
 30
0.0
  0
VERTEX
  8
0
 10
66.1315016259
 20
132.162891712
 30
0.0
  0
VERTEX
  8
0
 10
65.2654762221
 20
132.682891712
 30
0.0
  0
VERTEX
  8
0
 10
65.2654762221
 20
138.917108288
 30
0.0
  0
VERTEX
  8
0
 10
66.1315016259
 20
139.437108288
 30
0.0
  0
VERTEX
  8
0
 10
65.2654762221
 20
138.937108288
 30
0.0
  0
VERTEX
  8
0
 10
59.3318452776
 20
142.362891712
 30
0.0
  0
VERTEX
  8
0
 10
58.4658198739
 20
141.862891712
 30
0.0
  0
VERTEX
  8
0
 10
59.3318452776
 20
142.382891712
 30
0.0
  0
VERTEX
  8
0
 10
59.3318452776
 20
148.617108288
 30
0.0
  0
VERTEX
  8
0
 10
58.4658198739
 20
149.137108288
 30
0.0
  0
VERTEX
  8
0
 10
59.3318452776
 20
148.637108288
 30
0.0
  0
VERTEX
  8
0
 10
65.2654762221
 20
152.062891712
 30
0.0
  0
VERTEX
  8
0
 10
66.1315016259
 20
151.562891712
 30
0.0
  0
VERTEX
  8
0
 10
65.2654762221
 20
152.082891712
 30
0.0
  0
VERTEX
  8
0
 10
65.2654762221
 20
158.317108288
 30
0.0
  0
VERTEX
  8
0
 10
66.1315016259
 20
158.837108288
 30
0.0
  0
VERTEX
  8
0
 10
65.2654762221
 20
158.337108288
 30
0.0
  0
VERTEX
  8
0
 10
59.3318452776
 20
161.762891712
 30
0.0
  0
VERTEX
  8
0
 10
58.4658198739
 20
161.262891712
 30
0.0
  0
VERTEX
  8
0
 10
59.3318452776
 20
161.782891712
 30
0.0
  0
VERTEX
  8
0
 10
50.6715912398
 20
176.762891712
 30
0.0
  0
VERTEX
  8
0
 10
44.7379602953
 20
173.337108288
 30
0.0
  0
VERTEX
  8
0
 10
51.6661635256
 20
161.337108288
 30
0.0
  0
SEQEND
  8
0
  0
POLYLINE
  8
0
 62
0
 70
0
 66
1
 10
0.0
 20
0.0
 30
0.0
  0
VERTEX
  8
0
 10
63.7000920812
 20
84.8
 30
0.0
  0
VERTEX
  8
0
 10
63.7000920812
 20
90.3
 30
0.0
  0
VERTEX
  8
0
 10
68.8962445039
 20
87.3
 30
0.0
  0
VERTEX
  8
0
 10
63.7000920812
 20
84.3
 30
0.0
  0
SEQEND
  8
0
  0
POLYLINE
  8
0
 62
0
 70
0
 66
1
 10
0.0
 20
0.0
 30
0.0
  0
VERTEX
  8
0
 10
72.7635984741
 20
75.1
 30
0.0
  0
VERTEX
  8
0
 10
72.7635984741
 20
80.6
 30
0.0
  0
VERTEX
  8
0
 10
67.5674460514
 20
77.6
 30
0.0
  0
VERTEX
  8
0
 10
72.7635984741
 20
74.6
 30
0.0
  0
SEQEND
  8
0
  0
POLYLINE
  8
0
 62
0
 70
0
 66
1
 10
0.0
 20
0.0
 30
0.0
  0
VERTEX
  8
0
 10
60.8972294185
 20
133.3
 30
0.0
  0
VERTEX
  8
0
 10
60.8972294185
 20
138.8
 30
0.0
  0
VERTEX
  8
0
 10
55.7010769958
 20
135.8
 30
0.0
  0
VERTEX
  8
0
 10
60.8972294185
 20
132.8
 30
0.0
  0
SEQEND
  8
0
  0
POLYLINE
  8
0
 62
0
 70
0
 66
1
 10
0.0
 20
0.0
 30
0.0
  0
VERTEX
  8
0
 10
72.7635984741
 20
94.5
 30
0.0
  0
VERTEX
  8
0
 10
72.7635984741
 20
100.0
 30
0.0
  0
VERTEX
  8
0
 10
67.5674460514
 20
97.0
 30
0.0
  0
VERTEX
  8
0
 10
72.7635984741
 20
94.0
 30
0.0
  0
SEQEND
  8
0
  0
POLYLINE
  8
0
 62
0
 70
0
 66
1
 10
0.0
 20
0.0
 30
0.0
  0
VERTEX
  8
0
 10
63.7000920812
 20
46.0
 30
0.0
  0
VERTEX
  8
0
 10
63.7000920812
 20
51.5
 30
0.0
  0
VERTEX
  8
0
 10
68.8962445039
 20
48.5
 30
0.0
  0
VERTEX
  8
0
 10
63.7000920812
 20
45.5
 30
0.0
  0
SEQEND
  8
0
  0
POLYLINE
  8
0
 62
0
 70
0
 66
1
 10
0.0
 20
0.0
 30
0.0
  0
VERTEX
  8
0
 10
63.7000920812
 20
7.2
 30
0.0
  0
VERTEX
  8
0
 10
63.7000920812
 20
12.7
 30
0.0
  0
VERTEX
  8
0
 10
68.8962445039
 20
9.7
 30
0.0
  0
VERTEX
  8
0
 10
63.7000920812
 20
6.7
 30
0.0
  0
SEQEND
  8
0
  0
POLYLINE
  8
0
 62
0
 70
0
 66
1
 10
0.0
 20
0.0
 30
0.0
  0
VERTEX
  8
0
 10
72.7635984741
 20
16.9
 30
0.0
  0
VERTEX
  8
0
 10
72.7635984741
 20
22.4
 30
0.0
  0
VERTEX
  8
0
 10
67.5674460514
 20
19.4
 30
0.0
  0
VERTEX
  8
0
 10
72.7635984741
 20
16.4
 30
0.0
  0
SEQEND
  8
0
  0
POLYLINE
  8
0
 62
0
 70
0
 66
1
 10
0.0
 20
0.0
 30
0.0
  0
VERTEX
  8
0
 10
63.7000920812
 20
104.2
 30
0.0
  0
VERTEX
  8
0
 10
63.7000920812
 20
109.7
 30
0.0
  0
VERTEX
  8
0
 10
68.8962445039
 20
106.7
 30
0.0
  0
VERTEX
  8
0
 10
63.7000920812
 20
103.7
 30
0.0
  0
SEQEND
  8
0
  0
POLYLINE
  8
0
 62
0
 70
0
 66
1
 10
0.0
 20
0.0
 30
0.0
  0
VERTEX
  8
0
 10
63.7000920812
 20
26.6
 30
0.0
  0
VERTEX
  8
0
 10
63.7000920812
 20
32.1
 30
0.0
  0
VERTEX
  8
0
 10
68.8962445039
 20
29.1
 30
0.0
  0
VERTEX
  8
0
 10
63.7000920812
 20
26.1
 30
0.0
  0
SEQEND
  8
0
  0
POLYLINE
  8
0
 62
0
 70
0
 66
1
 10
0.0
 20
0.0
 30
0.0
  0
VERTEX
  8
0
 10
60.8972294185
 20
113.9
 30
0.0
  0
VERTEX
  8
0
 10
60.8972294185
 20
119.4
 30
0.0
  0
VERTEX
  8
0
 10
55.7010769958
 20
116.4
 30
0.0
  0
VERTEX
  8
0
 10
60.8972294185
 20
113.4
 30
0.0
  0
SEQEND
  8
0
  0
POLYLINE
  8
0
 62
0
 70
0
 66
1
 10
0.0
 20
0.0
 30
0.0
  0
VERTEX
  8
0
 10
51.8337230257
 20
143.0
 30
0.0
  0
VERTEX
  8
0
 10
51.8337230257
 20
148.5
 30
0.0
  0
VERTEX
  8
0
 10
57.0298754484
 20
145.5
 30
0.0
  0
VERTEX
  8
0
 10
51.8337230257
 20
142.5
 30
0.0
  0
SEQEND
  8
0
  0
POLYLINE
  8
0
 62
0
 70
0
 66
1
 10
0.0
 20
0.0
 30
0.0
  0
VERTEX
  8
0
 10
60.8972294185
 20
152.7
 30
0.0
  0
VERTEX
  8
0
 10
60.8972294185
 20
158.2
 30
0.0
  0
VERTEX
  8
0
 10
55.7010769958
 20
155.2
 30
0.0
  0
VERTEX
  8
0
 10
60.8972294185
 20
152.2
 30
0.0
  0
SEQEND
  8
0
  0
POLYLINE
  8
0
 62
0
 70
0
 66
1
 10
0.0
 20
0.0
 30
0.0
  0
VERTEX
  8
0
 10
72.7635984741
 20
36.3
 30
0.0
  0
VERTEX
  8
0
 10
72.7635984741
 20
41.8
 30
0.0
  0
VERTEX
  8
0
 10
67.5674460514
 20
38.8
 30
0.0
  0
VERTEX
  8
0
 10
72.7635984741
 20
35.8
 30
0.0
  0
SEQEND
  8
0
  0
POLYLINE
  8
0
 62
0
 70
0
 66
1
 10
0.0
 20
0.0
 30
0.0
  0
VERTEX
  8
0
 10
13.4317531964
 20
152.7
 30
0.0
  0
VERTEX
  8
0
 10
13.4317531964
 20
158.2
 30
0.0
  0
VERTEX
  8
0
 10
8.23560077372
 20
155.2
 30
0.0
  0
VERTEX
  8
0
 10
13.4317531964
 20
152.2
 30
0.0
  0
SEQEND
  8
0
  0
POLYLINE
  8
0
 62
0
 70
0
 66
1
 10
0.0
 20
0.0
 30
0.0
  0
VERTEX
  8
0
 10
4.36824680357
 20
46.0
 30
0.0
  0
VERTEX
  8
0
 10
4.36824680357
 20
51.5
 30
0.0
  0
VERTEX
  8
0
 10
9.56439922628
 20
48.5
 30
0.0
  0
VERTEX
  8
0
 10
4.36824680357
 20
45.5
 30
0.0
  0
SEQEND
  8
0
  0
POLYLINE
  8
0
 62
0
 70
0
 66
1
 10
0.0
 20
0.0
 30
0.0
  0
VERTEX
  8
0
 10
4.36824680357
 20
7.2
 30
0.0
  0
VERTEX
  8
0
 10
4.36824680357
 20
12.7
 30
0.0
  0
VERTEX
  8
0
 10
9.56439922628
 20
9.7
 30
0.0
  0
VERTEX
  8
0
 10
4.36824680357
 20
6.7
 30
0.0
  0
SEQEND
  8
0
  0
POLYLINE
  8
0
 62
0
 70
0
 66
1
 10
0.0
 20
0.0
 30
0.0
  0
VERTEX
  8
0
 10
16.2346158591
 20
26.6
 30
0.0
  0
VERTEX
  8
0
 10
16.2346158591
 20
32.1
 30
0.0
  0
VERTEX
  8
0
 10
21.4307682818
 20
29.1
 30
0.0
  0
VERTEX
  8
0
 10
16.2346158591
 20
26.1
 30
0.0
  0
SEQEND
  8
0
  0
POLYLINE
  8
0
 62
0
 70
0
 66
1
 10
0.0
 20
0.0
 30
0.0
  0
VERTEX
  8
0
 10
16.2346158591
 20
46.0
 30
0.0
  0
VERTEX
  8
0
 10
16.2346158591
 20
51.5
 30
0.0
  0
VERTEX
  8
0
 10
21.4307682818
 20
48.5
 30
0.0
  0
VERTEX
  8
0
 10
16.2346158591
 20
45.5
 30
0.0
  0
SEQEND
  8
0
  0
POLYLINE
  8
0
 62
0
 70
0
 66
1
 10
0.0
 20
0.0
 30
0.0
  0
VERTEX
  8
0
 10
13.4317531964
 20
36.3
 30
0.0
  0
VERTEX
  8
0
 10
13.4317531964
 20
41.8
 30
0.0
  0
VERTEX
  8
0
 10
8.23560077372
 20
38.8
 30
0.0
  0
VERTEX
  8
0
 10
13.4317531964
 20
35.8
 30
0.0
  0
SEQEND
  8
0
  0
POLYLINE
  8
0
 62
0
 70
0
 66
1
 10
0.0
 20
0.0
 30
0.0
  0
VERTEX
  8
0
 10
4.36824680357
 20
65.4
 30
0.0
  0
VERTEX
  8
0
 10
4.36824680357
 20
70.9
 30
0.0
  0
VERTEX
  8
0
 10
9.56439922628
 20
67.9
 30
0.0
  0
VERTEX
  8
0
 10
4.36824680357
 20
64.9
 30
0.0
  0
SEQEND
  8
0
  0
POLYLINE
  8
0
 62
0
 70
0
 66
1
 10
0.0
 20
0.0
 30
0.0
  0
VERTEX
  8
0
 10
4.36824680357
 20
104.2
 30
0.0
  0
VERTEX
  8
0
 10
4.36824680357
 20
109.7
 30
0.0
  0
VERTEX
  8
0
 10
9.56439922628
 20
106.7
 30
0.0
  0
VERTEX
  8
0
 10
4.36824680357
 20
103.7
 30
0.0
  0
SEQEND
  8
0
  0
POLYLINE
  8
0
 62
0
 70
0
 66
1
 10
0.0
 20
0.0
 30
0.0
  0
VERTEX
  8
0
 10
13.4317531964
 20
55.7
 30
0.0
  0
VERTEX
  8
0
 10
13.4317531964
 20
61.2
 30
0.0
  0
VERTEX
  8
0
 10
8.23560077372
 20
58.2
 30
0.0
  0
VERTEX
  8
0
 10
13.4317531964
 20
55.2
 30
0.0
  0
SEQEND
  8
0
  0
POLYLINE
  8
0
 62
0
 70
0
 66
1
 10
0.0
 20
0.0
 30
0.0
  0
VERTEX
  8
0
 10
13.4317531964
 20
16.9
 30
0.0
  0
VERTEX
  8
0
 10
13.4317531964
 20
22.4
 30
0.0
  0
VERTEX
  8
0
 10
8.23560077372
 20
19.4
 30
0.0
  0
VERTEX
  8
0
 10
13.4317531964
 20
16.4
 30
0.0
  0
SEQEND
  8
0
  0
POLYLINE
  8
0
 62
0
 70
0
 66
1
 10
0.0
 20
0.0
 30
0.0
  0
VERTEX
  8
0
 10
5.93363094447
 20
3.11710828847
 30
0.0
  0
VERTEX
  8
0
 10
6.79965634826
 20
3.63710828847
 30
0.0
  0
VERTEX
  8
0
 10
5.93363094447
 20
3.13710828847
 30
0.0
  0
VERTEX
  8
0
 10
0.0
 20
6.56289171153
 30
0.0
  0
VERTEX
  8
0
 10
-0.866025403784
 20
6.06289171153
 30
0.0
  0
VERTEX
  8
0
 10
0.0
 20
6.58289171153
 30
0.0
  0
VERTEX
  8
0
 10
0.0
 20
12.8171082885
 30
0.0
  0
VERTEX
  8
0
 10
-0.866025403784
 20
13.3371082885
 30
0.0
  0
VERTEX
  8
0
 10
0.0
 20
12.8371082885
 30
0.0
  0
VERTEX
  8
0
 10
5.93363094447
 20
16.2628917115
 30
0.0
  0
VERTEX
  8
0
 10
6.79965634826
 20
15.7628917115
 30
0.0
  0
VERTEX
  8
0
 10
5.93363094447
 20
16.2828917115
 30
0.0
  0
VERTEX
  8
0
 10
5.93363094447
 20
22.5171082885
 30
0.0
  0
VERTEX
  8
0
 10
6.79965634826
 20
23.0371082885
 30
0.0
  0
VERTEX
  8
0
 10
5.93363094447
 20
22.5371082885
 30
0.0
  0
VERTEX
  8
0
 10
0.0
 20
25.9628917115
 30
0.0
  0
VERTEX
  8
0
 10
-0.866025403784
 20
25.4628917115
 30
0.0
  0
VERTEX
  8
0
 10
0.0
 20
25.9828917115
 30
0.0
  0
VERTEX
  8
0
 10
0.0
 20
32.2171082885
 30
0.0
  0
VERTEX
  8
0
 10
-0.866025403784
 20
32.7371082885
 30
0.0
  0
VERTEX
  8
0
 10
0.0
 20
32.2371082885
 30
0.0
  0
VERTEX
  8
0
 10
5.93363094447
 20
35.6628917115
 30
0.0
  0
VERTEX
  8
0
 10
6.79965634826
 20
35.1628917115
 30
0.0
  0
VERTEX
  8
0
 10
5.93363094447
 20
35.6828917115
 30
0.0
  0
VERTEX
  8
0
 10
5.93363094447
 20
41.9171082885
 30
0.0
  0
VERTEX
  8
0
 10
6.79965634826
 20
42.4371082885
 30
0.0
  0
VERTEX
  8
0
 10
5.93363094447
 20
41.9371082885
 30
0.0
  0
VERTEX
  8
0
 10
0.0
 20
45.3628917115
 30
0.0
  0
VERTEX
  8
0
 10
-0.866025403784
 20
44.8628917115
 30
0.0
  0
VERTEX
  8
0
 10
0.0
 20
45.3828917115
 30
0.0
  0
VERTEX
  8
0
 10
0.0
 20
51.6171082885
 30
0.0
  0
VERTEX
  8
0
 10
-0.866025403784
 20
52.1371082885
 30
0.0
  0
VERTEX
  8
0
 10
0.0
 20
51.6371082885
 30
0.0
  0
VERTEX
  8
0
 10
5.93363094447
 20
55.0628917115
 30
0.0
  0
VERTEX
  8
0
 10
6.79965634826
 20
54.5628917115
 30
0.0
  0
VERTEX
  8
0
 10
5.93363094447
 20
55.0828917115
 30
0.0
  0
VERTEX
  8
0
 10
5.93363094447
 20
61.3171082885
 30
0.0
  0
VERTEX
  8
0
 10
6.79965634826
 20
61.8371082885
 30
0.0
  0
VERTEX
  8
0
 10
5.93363094447
 20
61.3371082885
 30
0.0
  0
VERTEX
  8
0
 10
0.0
 20
64.7628917115
 30
0.0
  0
VERTEX
  8
0
 10
-0.866025403784
 20
64.2628917115
 30
0.0
  0
VERTEX
  8
0
 10
0.0
 20
64.7828917115
 30
0.0
  0
VERTEX
  8
0
 10
0.0
 20
71.0171082885
 30
0.0
  0
VERTEX
  8
0
 10
-0.866025403784
 20
71.5371082885
 30
0.0
  0
VERTEX
  8
0
 10
0.0
 20
71.0371082885
 30
0.0
  0
VERTEX
  8
0
 10
5.93363094447
 20
74.4628917115
 30
0.0
  0
VERTEX
  8
0
 10
6.79965634826
 20
73.9628917115
 30
0.0
  0
VERTEX
  8
0
 10
5.93363094447
 20
74.4828917115
 30
0.0
  0
VERTEX
  8
0
 10
5.93363094447
 20
80.7171082885
 30
0.0
  0
VERTEX
  8
0
 10
6.79965634826
 20
81.2371082885
 30
0.0
  0
VERTEX
  8
0
 10
5.93363094447
 20
80.7371082885
 30
0.0
  0
VERTEX
  8
0
 10
0.0
 20
84.1628917115
 30
0.0
  0
VERTEX
  8
0
 10
-0.866025403784
 20
83.6628917115
 30
0.0
  0
VERTEX
  8
0
 10
0.0
 20
84.1828917115
 30
0.0
  0
VERTEX
  8
0
 10
0.0
 20
90.4171082885
 30
0.0
  0
VERTEX
  8
0
 10
-0.866025403784
 20
90.9371082885
 30
0.0
  0
VERTEX
  8
0
 10
0.0
 20
90.4371082885
 30
0.0
  0
VERTEX
  8
0
 10
5.93363094447
 20
93.8628917115
 30
0.0
  0
VERTEX
  8
0
 10
6.79965634826
 20
93.3628917115
 30
0.0
  0
VERTEX
  8
0
 10
5.93363094447
 20
93.8828917115
 30
0.0
  0
VERTEX
  8
0
 10
5.93363094447
 20
100.117108288
 30
0.0
  0
VERTEX
  8
0
 10
6.79965634826
 20
100.637108288
 30
0.0
  0
VERTEX
  8
0
 10
5.93363094447
 20
100.137108288
 30
0.0
  0
VERTEX
  8
0
 10
0.0
 20
103.562891712
 30
0.0
  0
VERTEX
  8
0
 10
-0.866025403784
 20
103.062891712
 30
0.0
  0
VERTEX
  8
0
 10
0.0
 20
103.582891712
 30
0.0
  0
VERTEX
  8
0
 10
0.0
 20
109.817108288
 30
0.0
  0
VERTEX
  8
0
 10
-0.866025403784
 20
110.337108288
 30
0.0
  0
VERTEX
  8
0
 10
0.0
 20
109.837108288
 30
0.0
  0
VERTEX
  8
0
 10
5.93363094447
 20
113.262891712
 30
0.0
  0
VERTEX
  8
0
 10
6.79965634826
 20
112.762891712
 30
0.0
  0
VERTEX
  8
0
 10
5.93363094447
 20
113.282891712
 30
0.0
  0
VERTEX
  8
0
 10
5.93363094447
 20
119.517108288
 30
0.0
  0
VERTEX
  8
0
 10
6.79965634826
 20
120.037108288
 30
0.0
  0
VERTEX
  8
0
 10
5.93363094447
 20
119.537108288
 30
0.0
  0
VERTEX
  8
0
 10
0.0
 20
122.962891712
 30
0.0
  0
VERTEX
  8
0
 10
-0.866025403784
 20
122.462891712
 30
0.0
  0
VERTEX
  8
0
 10
0.0
 20
122.982891712
 30
0.0
  0
VERTEX
  8
0
 10
0.0
 20
129.217108288
 30
0.0
  0
VERTEX
  8
0
 10
-0.866025403784
 20
129.737108288
 30
0.0
  0
VERTEX
  8
0
 10
0.0
 20
129.237108288
 30
0.0
  0
VERTEX
  8
0
 10
5.93363094447
 20
132.662891712
 30
0.0
  0
VERTEX
  8
0
 10
6.79965634826
 20
132.162891712
 30
0.0
  0
VERTEX
  8
0
 10
5.93363094447
 20
132.682891712
 30
0.0
  0
VERTEX
  8
0
 10
5.93363094447
 20
138.917108288
 30
0.0
  0
VERTEX
  8
0
 10
6.79965634826
 20
139.437108288
 30
0.0
  0
VERTEX
  8
0
 10
5.93363094447
 20
138.937108288
 30
0.0
  0
VERTEX
  8
0
 10
0.0
 20
142.362891712
 30
0.0
  0
VERTEX
  8
0
 10
-0.866025403784
 20
141.862891712
 30
0.0
  0
VERTEX
  8
0
 10
0.0
 20
142.382891712
 30
0.0
  0
VERTEX
  8
0
 10
0.0
 20
148.617108288
 30
0.0
  0
VERTEX
  8
0
 10
-0.866025403784
 20
149.137108288
 30
0.0
  0
VERTEX
  8
0
 10
0.0
 20
148.637108288
 30
0.0
  0
VERTEX
  8
0
 10
5.93363094447
 20
152.062891712
 30
0.0
  0
VERTEX
  8
0
 10
6.79965634826
 20
151.562891712
 30
0.0
  0
VERTEX
  8
0
 10
5.93363094447
 20
152.082891712
 30
0.0
  0
VERTEX
  8
0
 10
5.93363094447
 20
158.317108288
 30
0.0
  0
VERTEX
  8
0
 10
6.79965634826
 20
158.837108288
 30
0.0
  0
VERTEX
  8
0
 10
5.93363094447
 20
158.337108288
 30
0.0
  0
VERTEX
  8
0
 10
0.0
 20
161.762891712
 30
0.0
  0
VERTEX
  8
0
 10
-0.866025403784
 20
161.262891712
 30
0.0
  0
VERTEX
  8
0
 10
0.0
 20
161.782891712
 30
0.0
  0
SEQEND
  8
0
  0
POLYLINE
  8
0
 62
0
 70
0
 66
1
 10
0.0
 20
0.0
 30
0.0
  0
VERTEX
  8
0
 10
4.36824680357
 20
84.8
 30
0.0
  0
VERTEX
  8
0
 10
4.36824680357
 20
90.3
 30
0.0
  0
VERTEX
  8
0
 10
9.56439922628
 20
87.3
 30
0.0
  0
VERTEX
  8
0
 10
4.36824680357
 20
84.3
 30
0.0
  0
SEQEND
  8
0
  0
POLYLINE
  8
0
 62
0
 70
0
 66
1
 10
0.0
 20
0.0
 30
0.0
  0
VERTEX
  8
0
 10
4.36824680357
 20
123.6
 30
0.0
  0
VERTEX
  8
0
 10
4.36824680357
 20
129.1
 30
0.0
  0
VERTEX
  8
0
 10
9.56439922628
 20
126.1
 30
0.0
  0
VERTEX
  8
0
 10
4.36824680357
 20
123.1
 30
0.0
  0
SEQEND
  8
0
  0
POLYLINE
  8
0
 62
0
 70
0
 66
1
 10
0.0
 20
0.0
 30
0.0
  0
VERTEX
  8
0
 10
13.4317531964
 20
94.5
 30
0.0
  0
VERTEX
  8
0
 10
13.4317531964
 20
100.0
 30
0.0
  0
VERTEX
  8
0
 10
8.23560077372
 20
97.0
 30
0.0
  0
VERTEX
  8
0
 10
13.4317531964
 20
94.0
 30
0.0
  0
SEQEND
  8
0
  0
POLYLINE
  8
0
 62
0
 70
0
 66
1
 10
0.0
 20
0.0
 30
0.0
  0
VERTEX
  8
0
 10
13.4317531964
 20
75.1
 30
0.0
  0
VERTEX
  8
0
 10
13.4317531964
 20
80.6
 30
0.0
  0
VERTEX
  8
0
 10
8.23560077372
 20
77.6
 30
0.0
  0
VERTEX
  8
0
 10
13.4317531964
 20
74.6
 30
0.0
  0
SEQEND
  8
0
  0
POLYLINE
  8
0
 62
0
 70
0
 66
1
 10
0.0
 20
0.0
 30
0.0
  0
VERTEX
  8
0
 10
13.4317531964
 20
133.3
 30
0.0
  0
VERTEX
  8
0
 10
13.4317531964
 20
138.8
 30
0.0
  0
VERTEX
  8
0
 10
8.23560077372
 20
135.8
 30
0.0
  0
VERTEX
  8
0
 10
13.4317531964
 20
132.8
 30
0.0
  0
SEQEND
  8
0
  0
POLYLINE
  8
0
 62
0
 70
0
 66
1
 10
0.0
 20
0.0
 30
0.0
  0
VERTEX
  8
0
 10
13.4317531964
 20
113.9
 30
0.0
  0
VERTEX
  8
0
 10
13.4317531964
 20
119.4
 30
0.0
  0
VERTEX
  8
0
 10
8.23560077372
 20
116.4
 30
0.0
  0
VERTEX
  8
0
 10
13.4317531964
 20
113.4
 30
0.0
  0
SEQEND
  8
0
  0
POLYLINE
  8
0
 62
0
 70
0
 66
1
 10
0.0
 20
0.0
 30
0.0
  0
VERTEX
  8
0
 10
4.36824680357
 20
26.6
 30
0.0
  0
VERTEX
  8
0
 10
4.36824680357
 20
32.1
 30
0.0
  0
VERTEX
  8
0
 10
9.56439922628
 20
29.1
 30
0.0
  0
VERTEX
  8
0
 10
4.36824680357
 20
26.1
 30
0.0
  0
SEQEND
  8
0
  0
POLYLINE
  8
0
 62
0
 70
0
 66
1
 10
0.0
 20
0.0
 30
0.0
  0
VERTEX
  8
0
 10
4.36824680357
 20
143.0
 30
0.0
  0
VERTEX
  8
0
 10
4.36824680357
 20
148.5
 30
0.0
  0
VERTEX
  8
0
 10
9.56439922628
 20
145.5
 30
0.0
  0
VERTEX
  8
0
 10
4.36824680357
 20
142.5
 30
0.0
  0
SEQEND
  8
0
  0
POLYLINE
  8
0
 62
0
 70
0
 66
1
 10
0.0
 20
0.0
 30
0.0
  0
VERTEX
  8
0
 10
17.8
 20
3.11710828847
 30
0.0
  0
VERTEX
  8
0
 10
18.6660254038
 20
3.63710828847
 30
0.0
  0
VERTEX
  8
0
 10
17.8
 20
3.13710828847
 30
0.0
  0
VERTEX
  8
0
 10
11.8663690555
 20
6.56289171153
 30
0.0
  0
VERTEX
  8
0
 10
11.0003436517
 20
6.06289171153
 30
0.0
  0
VERTEX
  8
0
 10
11.8663690555
 20
6.58289171153
 30
0.0
  0
VERTEX
  8
0
 10
11.8663690555
 20
12.8171082885
 30
0.0
  0
VERTEX
  8
0
 10
11.0003436517
 20
13.3371082885
 30
0.0
  0
VERTEX
  8
0
 10
11.8663690555
 20
12.8371082885
 30
0.0
  0
VERTEX
  8
0
 10
17.8
 20
16.2628917115
 30
0.0
  0
VERTEX
  8
0
 10
18.6660254038
 20
15.7628917115
 30
0.0
  0
VERTEX
  8
0
 10
17.8
 20
16.2828917115
 30
0.0
  0
VERTEX
  8
0
 10
17.8
 20
22.5171082885
 30
0.0
  0
VERTEX
  8
0
 10
18.6660254038
 20
23.0371082885
 30
0.0
  0
VERTEX
  8
0
 10
17.8
 20
22.5371082885
 30
0.0
  0
VERTEX
  8
0
 10
11.8663690555
 20
25.9628917115
 30
0.0
  0
VERTEX
  8
0
 10
11.0003436517
 20
25.4628917115
 30
0.0
  0
VERTEX
  8
0
 10
11.8663690555
 20
25.9828917115
 30
0.0
  0
VERTEX
  8
0
 10
11.8663690555
 20
32.2171082885
 30
0.0
  0
VERTEX
  8
0
 10
11.0003436517
 20
32.7371082885
 30
0.0
  0
VERTEX
  8
0
 10
11.8663690555
 20
32.2371082885
 30
0.0
  0
VERTEX
  8
0
 10
17.8
 20
35.6628917115
 30
0.0
  0
VERTEX
  8
0
 10
18.6660254038
 20
35.1628917115
 30
0.0
  0
VERTEX
  8
0
 10
17.8
 20
35.6828917115
 30
0.0
  0
VERTEX
  8
0
 10
17.8
 20
41.9171082885
 30
0.0
  0
VERTEX
  8
0
 10
18.6660254038
 20
42.4371082885
 30
0.0
  0
VERTEX
  8
0
 10
17.8
 20
41.9371082885
 30
0.0
  0
VERTEX
  8
0
 10
11.8663690555
 20
45.3628917115
 30
0.0
  0
VERTEX
  8
0
 10
11.0003436517
 20
44.8628917115
 30
0.0
  0
VERTEX
  8
0
 10
11.8663690555
 20
45.3828917115
 30
0.0
  0
VERTEX
  8
0
 10
11.8663690555
 20
51.6171082885
 30
0.0
  0
VERTEX
  8
0
 10
11.0003436517
 20
52.1371082885
 30
0.0
  0
VERTEX
  8
0
 10
11.8663690555
 20
51.6371082885
 30
0.0
  0
VERTEX
  8
0
 10
17.8
 20
55.0628917115
 30
0.0
  0
VERTEX
  8
0
 10
18.6660254038
 20
54.5628917115
 30
0.0
  0
VERTEX
  8
0
 10
17.8
 20
55.0828917115
 30
0.0
  0
VERTEX
  8
0
 10
17.8
 20
61.3171082885
 30
0.0
  0
VERTEX
  8
0
 10
18.6660254038
 20
61.8371082885
 30
0.0
  0
VERTEX
  8
0
 10
17.8
 20
61.3371082885
 30
0.0
  0
VERTEX
  8
0
 10
11.8663690555
 20
64.7628917115
 30
0.0
  0
VERTEX
  8
0
 10
11.0003436517
 20
64.2628917115
 30
0.0
  0
VERTEX
  8
0
 10
11.8663690555
 20
64.7828917115
 30
0.0
  0
VERTEX
  8
0
 10
11.8663690555
 20
71.0171082885
 30
0.0
  0
VERTEX
  8
0
 10
11.0003436517
 20
71.5371082885
 30
0.0
  0
VERTEX
  8
0
 10
11.8663690555
 20
71.0371082885
 30
0.0
  0
VERTEX
  8
0
 10
17.8
 20
74.4628917115
 30
0.0
  0
VERTEX
  8
0
 10
18.6660254038
 20
73.9628917115
 30
0.0
  0
VERTEX
  8
0
 10
17.8
 20
74.4828917115
 30
0.0
  0
VERTEX
  8
0
 10
17.8
 20
80.7171082885
 30
0.0
  0
VERTEX
  8
0
 10
18.6660254038
 20
81.2371082885
 30
0.0
  0
VERTEX
  8
0
 10
17.8
 20
80.7371082885
 30
0.0
  0
VERTEX
  8
0
 10
11.8663690555
 20
84.1628917115
 30
0.0
  0
VERTEX
  8
0
 10
11.0003436517
 20
83.6628917115
 30
0.0
  0
VERTEX
  8
0
 10
11.8663690555
 20
84.1828917115
 30
0.0
  0
VERTEX
  8
0
 10
11.8663690555
 20
90.4171082885
 30
0.0
  0
VERTEX
  8
0
 10
11.0003436517
 20
90.9371082885
 30
0.0
  0
VERTEX
  8
0
 10
11.8663690555
 20
90.4371082885
 30
0.0
  0
VERTEX
  8
0
 10
17.8
 20
93.8628917115
 30
0.0
  0
VERTEX
  8
0
 10
18.6660254038
 20
93.3628917115
 30
0.0
  0
VERTEX
  8
0
 10
17.8
 20
93.8828917115
 30
0.0
  0
VERTEX
  8
0
 10
17.8
 20
100.117108288
 30
0.0
  0
VERTEX
  8
0
 10
18.6660254038
 20
100.637108288
 30
0.0
  0
VERTEX
  8
0
 10
17.8
 20
100.137108288
 30
0.0
  0
VERTEX
  8
0
 10
11.8663690555
 20
103.562891712
 30
0.0
  0
VERTEX
  8
0
 10
11.0003436517
 20
103.062891712
 30
0.0
  0
VERTEX
  8
0
 10
11.8663690555
 20
103.582891712
 30
0.0
  0
VERTEX
  8
0
 10
11.8663690555
 20
109.817108288
 30
0.0
  0
VERTEX
  8
0
 10
11.0003436517
 20
110.337108288
 30
0.0
  0
VERTEX
  8
0
 10
11.8663690555
 20
109.837108288
 30
0.0
  0
VERTEX
  8
0
 10
17.8
 20
113.262891712
 30
0.0
  0
VERTEX
  8
0
 10
18.6660254038
 20
112.762891712
 30
0.0
  0
VERTEX
  8
0
 10
17.8
 20
113.282891712
 30
0.0
  0
VERTEX
  8
0
 10
17.8
 20
119.517108288
 30
0.0
  0
VERTEX
  8
0
 10
18.6660254038
 20
120.037108288
 30
0.0
  0
VERTEX
  8
0
 10
17.8
 20
119.537108288
 30
0.0
  0
VERTEX
  8
0
 10
11.8663690555
 20
122.962891712
 30
0.0
  0
VERTEX
  8
0
 10
11.0003436517
 20
122.462891712
 30
0.0
  0
VERTEX
  8
0
 10
11.8663690555
 20
122.982891712
 30
0.0
  0
VERTEX
  8
0
 10
11.8663690555
 20
129.217108288
 30
0.0
  0
VERTEX
  8
0
 10
11.0003436517
 20
129.737108288
 30
0.0
  0
VERTEX
  8
0
 10
11.8663690555
 20
129.237108288
 30
0.0
  0
VERTEX
  8
0
 10
17.8
 20
132.662891712
 30
0.0
  0
VERTEX
  8
0
 10
18.6660254038
 20
132.162891712
 30
0.0
  0
VERTEX
  8
0
 10
17.8
 20
132.682891712
 30
0.0
  0
VERTEX
  8
0
 10
17.8
 20
138.917108288
 30
0.0
  0
VERTEX
  8
0
 10
18.6660254038
 20
139.437108288
 30
0.0
  0
VERTEX
  8
0
 10
17.8
 20
138.937108288
 30
0.0
  0
VERTEX
  8
0
 10
11.8663690555
 20
142.362891712
 30
0.0
  0
VERTEX
  8
0
 10
11.0003436517
 20
141.862891712
 30
0.0
  0
VERTEX
  8
0
 10
11.8663690555
 20
142.382891712
 30
0.0
  0
VERTEX
  8
0
 10
11.8663690555
 20
148.617108288
 30
0.0
  0
VERTEX
  8
0
 10
11.0003436517
 20
149.137108288
 30
0.0
  0
VERTEX
  8
0
 10
11.8663690555
 20
148.637108288
 30
0.0
  0
VERTEX
  8
0
 10
17.8
 20
152.062891712
 30
0.0
  0
VERTEX
  8
0
 10
18.6660254038
 20
151.562891712
 30
0.0
  0
VERTEX
  8
0
 10
17.8
 20
152.082891712
 30
0.0
  0
VERTEX
  8
0
 10
17.8
 20
158.317108288
 30
0.0
  0
VERTEX
  8
0
 10
18.6660254038
 20
158.837108288
 30
0.0
  0
VERTEX
  8
0
 10
17.8
 20
158.337108288
 30
0.0
  0
VERTEX
  8
0
 10
11.8663690555
 20
161.762891712
 30
0.0
  0
VERTEX
  8
0
 10
11.0003436517
 20
161.262891712
 30
0.0
  0
VERTEX
  8
0
 10
11.8663690555
 20
161.782891712
 30
0.0
  0
VERTEX
  8
0
 10
3.20611501768
 20
176.762891712
 30
0.0
  0
VERTEX
  8
0
 10
-2.72751592679
 20
173.337108288
 30
0.0
  0
VERTEX
  8
0
 10
4.20068730349
 20
161.337108288
 30
0.0
  0
SEQEND
  8
0
  0
POLYLINE
  8
0
 62
0
 70
0
 66
1
 10
0.0
 20
0.0
 30
0.0
  0
VERTEX
  8
0
 10
16.2346158591
 20
7.2
 30
0.0
  0
VERTEX
  8
0
 10
16.2346158591
 20
12.7
 30
0.0
  0
VERTEX
  8
0
 10
21.4307682818
 20
9.7
 30
0.0
  0
VERTEX
  8
0
 10
16.2346158591
 20
6.7
 30
0.0
  0
SEQEND
  8
0
  0
POLYLINE
  8
0
 62
0
 70
0
 66
1
 10
0.0
 20
0.0
 30
0.0
  0
VERTEX
  8
0
 10
25.298122252
 20
16.9
 30
0.0
  0
VERTEX
  8
0
 10
25.298122252
 20
22.4
 30
0.0
  0
VERTEX
  8
0
 10
20.1019698293
 20
19.4
 30
0.0
  0
VERTEX
  8
0
 10
25.298122252
 20
16.4
 30
0.0
  0
SEQEND
  8
0
  0
POLYLINE
  8
0
 62
0
 70
0
 66
1
 10
0.0
 20
0.0
 30
0.0
  0
VERTEX
  8
0
 10
25.298122252
 20
36.3
 30
0.0
  0
VERTEX
  8
0
 10
25.298122252
 20
41.8
 30
0.0
  0
VERTEX
  8
0
 10
20.1019698293
 20
38.8
 30
0.0
  0
VERTEX
  8
0
 10
25.298122252
 20
35.8
 30
0.0
  0
SEQEND
  8
0
  0
POLYLINE
  8
0
 62
0
 70
0
 66
1
 10
0.0
 20
0.0
 30
0.0
  0
VERTEX
  8
0
 10
16.2346158591
 20
104.2
 30
0.0
  0
VERTEX
  8
0
 10
16.2346158591
 20
109.7
 30
0.0
  0
VERTEX
  8
0
 10
21.4307682818
 20
106.7
 30
0.0
  0
VERTEX
  8
0
 10
16.2346158591
 20
103.7
 30
0.0
  0
SEQEND
  8
0
  0
POLYLINE
  8
0
 62
0
 70
0
 66
1
 10
0.0
 20
0.0
 30
0.0
  0
VERTEX
  8
0
 10
25.298122252
 20
94.5
 30
0.0
  0
VERTEX
  8
0
 10
25.298122252
 20
100.0
 30
0.0
  0
VERTEX
  8
0
 10
20.1019698293
 20
97.0
 30
0.0
  0
VERTEX
  8
0
 10
25.298122252
 20
94.0
 30
0.0
  0
SEQEND
  8
0
  0
POLYLINE
  8
0
 62
0
 70
0
 66
1
 10
0.0
 20
0.0
 30
0.0
  0
VERTEX
  8
0
 10
16.2346158591
 20
143.0
 30
0.0
  0
VERTEX
  8
0
 10
16.2346158591
 20
148.5
 30
0.0
  0
VERTEX
  8
0
 10
21.4307682818
 20
145.5
 30
0.0
  0
VERTEX
  8
0
 10
16.2346158591
 20
142.5
 30
0.0
  0
SEQEND
  8
0
  0
POLYLINE
  8
0
 62
0
 70
0
 66
1
 10
0.0
 20
0.0
 30
0.0
  0
VERTEX
  8
0
 10
25.298122252
 20
55.7
 30
0.0
  0
VERTEX
  8
0
 10
25.298122252
 20
61.2
 30
0.0
  0
VERTEX
  8
0
 10
20.1019698293
 20
58.2
 30
0.0
  0
VERTEX
  8
0
 10
25.298122252
 20
55.2
 30
0.0
  0
SEQEND
  8
0
  0
POLYLINE
  8
0
 62
0
 70
0
 66
1
 10
0.0
 20
0.0
 30
0.0
  0
VERTEX
  8
0
 10
25.298122252
 20
113.9
 30
0.0
  0
VERTEX
  8
0
 10
25.298122252
 20
119.4
 30
0.0
  0
VERTEX
  8
0
 10
20.1019698293
 20
116.4
 30
0.0
  0
VERTEX
  8
0
 10
25.298122252
 20
113.4
 30
0.0
  0
SEQEND
  8
0
  0
POLYLINE
  8
0
 62
0
 70
0
 66
1
 10
0.0
 20
0.0
 30
0.0
  0
VERTEX
  8
0
 10
16.2346158591
 20
123.6
 30
0.0
  0
VERTEX
  8
0
 10
16.2346158591
 20
129.1
 30
0.0
  0
VERTEX
  8
0
 10
21.4307682818
 20
126.1
 30
0.0
  0
VERTEX
  8
0
 10
16.2346158591
 20
123.1
 30
0.0
  0
SEQEND
  8
0
  0
POLYLINE
  8
0
 62
0
 70
0
 66
1
 10
0.0
 20
0.0
 30
0.0
  0
VERTEX
  8
0
 10
25.298122252
 20
133.3
 30
0.0
  0
VERTEX
  8
0
 10
25.298122252
 20
138.8
 30
0.0
  0
VERTEX
  8
0
 10
20.1019698293
 20
135.8
 30
0.0
  0
VERTEX
  8
0
 10
25.298122252
 20
132.8
 30
0.0
  0
SEQEND
  8
0
  0
POLYLINE
  8
0
 62
0
 70
0
 66
1
 10
0.0
 20
0.0
 30
0.0
  0
VERTEX
  8
0
 10
25.298122252
 20
75.1
 30
0.0
  0
VERTEX
  8
0
 10
25.298122252
 20
80.6
 30
0.0
  0
VERTEX
  8
0
 10
20.1019698293
 20
77.6
 30
0.0
  0
VERTEX
  8
0
 10
25.298122252
 20
74.6
 30
0.0
  0
SEQEND
  8
0
  0
POLYLINE
  8
0
 62
0
 70
0
 66
1
 10
0.0
 20
0.0
 30
0.0
  0
VERTEX
  8
0
 10
16.2346158591
 20
84.8
 30
0.0
  0
VERTEX
  8
0
 10
16.2346158591
 20
90.3
 30
0.0
  0
VERTEX
  8
0
 10
21.4307682818
 20
87.3
 30
0.0
  0
VERTEX
  8
0
 10
16.2346158591
 20
84.3
 30
0.0
  0
SEQEND
  8
0
  0
POLYLINE
  8
0
 62
0
 70
0
 66
1
 10
0.0
 20
0.0
 30
0.0
  0
VERTEX
  8
0
 10
16.2346158591
 20
65.4
 30
0.0
  0
VERTEX
  8
0
 10
16.2346158591
 20
70.9
 30
0.0
  0
VERTEX
  8
0
 10
21.4307682818
 20
67.9
 30
0.0
  0
VERTEX
  8
0
 10
16.2346158591
 20
64.9
 30
0.0
  0
SEQEND
  8
0
  0
POLYLINE
  8
0
 62
0
 70
0
 66
1
 10
0.0
 20
0.0
 30
0.0
  0
VERTEX
  8
0
 10
179.560919974
 20
152.7
 30
0.0
  0
VERTEX
  8
0
 10
179.560919974
 20
158.2
 30
0.0
  0
VERTEX
  8
0
 10
174.364767551
 20
155.2
 30
0.0
  0
VERTEX
  8
0
 10
179.560919974
 20
152.2
 30
0.0
  0
SEQEND
  8
0
  0
POLYLINE
  8
0
 62
0
 70
0
 66
1
 10
0.0
 20
0.0
 30
0.0
  0
VERTEX
  8
0
 10
108.362705641
 20
75.1
 30
0.0
  0
VERTEX
  8
0
 10
108.362705641
 20
80.6
 30
0.0
  0
VERTEX
  8
0
 10
103.166553218
 20
77.6
 30
0.0
  0
VERTEX
  8
0
 10
108.362705641
 20
74.6
 30
0.0
  0
SEQEND
  8
0
  0
POLYLINE
  8
0
 62
0
 70
0
 66
1
 10
0.0
 20
0.0
 30
0.0
  0
VERTEX
  8
0
 10
99.2991992478
 20
104.2
 30
0.0
  0
VERTEX
  8
0
 10
99.2991992478
 20
109.7
 30
0.0
  0
VERTEX
  8
0
 10
104.49535167
 20
106.7
 30
0.0
  0
VERTEX
  8
0
 10
99.2991992478
 20
103.7
 30
0.0
  0
SEQEND
  8
0
  0
POLYLINE
  8
0
 62
0
 70
0
 66
1
 10
0.0
 20
0.0
 30
0.0
  0
VERTEX
  8
0
 10
120.229074696
 20
133.3
 30
0.0
  0
VERTEX
  8
0
 10
120.229074696
 20
138.8
 30
0.0
  0
VERTEX
  8
0
 10
115.032922273
 20
135.8
 30
0.0
  0
VERTEX
  8
0
 10
120.229074696
 20
132.8
 30
0.0
  0
SEQEND
  8
0
  0
POLYLINE
  8
0
 62
0
 70
0
 66
1
 10
0.0
 20
0.0
 30
0.0
  0
VERTEX
  8
0
 10
111.165568303
 20
26.6
 30
0.0
  0
VERTEX
  8
0
 10
111.165568303
 20
32.1
 30
0.0
  0
VERTEX
  8
0
 10
116.361720726
 20
29.1
 30
0.0
  0
VERTEX
  8
0
 10
111.165568303
 20
26.1
 30
0.0
  0
SEQEND
  8
0
  0
POLYLINE
  8
0
 62
0
 70
0
 66
1
 10
0.0
 20
0.0
 30
0.0
  0
VERTEX
  8
0
 10
99.2991992478
 20
84.8
 30
0.0
  0
VERTEX
  8
0
 10
99.2991992478
 20
90.3
 30
0.0
  0
VERTEX
  8
0
 10
104.49535167
 20
87.3
 30
0.0
  0
VERTEX
  8
0
 10
99.2991992478
 20
84.3
 30
0.0
  0
SEQEND
  8
0
  0
POLYLINE
  8
0
 62
0
 70
0
 66
1
 10
0.0
 20
0.0
 30
0.0
  0
VERTEX
  8
0
 10
99.2991992478
 20
123.6
 30
0.0
  0
VERTEX
  8
0
 10
99.2991992478
 20
129.1
 30
0.0
  0
VERTEX
  8
0
 10
104.49535167
 20
126.1
 30
0.0
  0
VERTEX
  8
0
 10
99.2991992478
 20
123.1
 30
0.0
  0
SEQEND
  8
0
  0
POLYLINE
  8
0
 62
0
 70
0
 66
1
 10
0.0
 20
0.0
 30
0.0
  0
VERTEX
  8
0
 10
112.730952444
 20
3.11710828847
 30
0.0
  0
VERTEX
  8
0
 10
113.596977848
 20
3.63710828847
 30
0.0
  0
VERTEX
  8
0
 10
112.730952444
 20
3.13710828847
 30
0.0
  0
VERTEX
  8
0
 10
106.7973215
 20
6.56289171153
 30
0.0
  0
VERTEX
  8
0
 10
105.931296096
 20
6.06289171153
 30
0.0
  0
VERTEX
  8
0
 10
106.7973215
 20
6.58289171153
 30
0.0
  0
VERTEX
  8
0
 10
106.7973215
 20
12.8171082885
 30
0.0
  0
VERTEX
  8
0
 10
105.931296096
 20
13.3371082885
 30
0.0
  0
VERTEX
  8
0
 10
106.7973215
 20
12.8371082885
 30
0.0
  0
VERTEX
  8
0
 10
112.730952444
 20
16.2628917115
 30
0.0
  0
VERTEX
  8
0
 10
113.596977848
 20
15.7628917115
 30
0.0
  0
VERTEX
  8
0
 10
112.730952444
 20
16.2828917115
 30
0.0
  0
VERTEX
  8
0
 10
112.730952444
 20
22.5171082885
 30
0.0
  0
VERTEX
  8
0
 10
113.596977848
 20
23.0371082885
 30
0.0
  0
VERTEX
  8
0
 10
112.730952444
 20
22.5371082885
 30
0.0
  0
VERTEX
  8
0
 10
106.7973215
 20
25.9628917115
 30
0.0
  0
VERTEX
  8
0
 10
105.931296096
 20
25.4628917115
 30
0.0
  0
VERTEX
  8
0
 10
106.7973215
 20
25.9828917115
 30
0.0
  0
VERTEX
  8
0
 10
106.7973215
 20
32.2171082885
 30
0.0
  0
VERTEX
  8
0
 10
105.931296096
 20
32.7371082885
 30
0.0
  0
VERTEX
  8
0
 10
106.7973215
 20
32.2371082885
 30
0.0
  0
VERTEX
  8
0
 10
112.730952444
 20
35.6628917115
 30
0.0
  0
VERTEX
  8
0
 10
113.596977848
 20
35.1628917115
 30
0.0
  0
VERTEX
  8
0
 10
112.730952444
 20
35.6828917115
 30
0.0
  0
VERTEX
  8
0
 10
112.730952444
 20
41.9171082885
 30
0.0
  0
VERTEX
  8
0
 10
113.596977848
 20
42.4371082885
 30
0.0
  0
VERTEX
  8
0
 10
112.730952444
 20
41.9371082885
 30
0.0
  0
VERTEX
  8
0
 10
106.7973215
 20
45.3628917115
 30
0.0
  0
VERTEX
  8
0
 10
105.931296096
 20
44.8628917115
 30
0.0
  0
VERTEX
  8
0
 10
106.7973215
 20
45.3828917115
 30
0.0
  0
VERTEX
  8
0
 10
106.7973215
 20
51.6171082885
 30
0.0
  0
VERTEX
  8
0
 10
105.931296096
 20
52.1371082885
 30
0.0
  0
VERTEX
  8
0
 10
106.7973215
 20
51.6371082885
 30
0.0
  0
VERTEX
  8
0
 10
112.730952444
 20
55.0628917115
 30
0.0
  0
VERTEX
  8
0
 10
113.596977848
 20
54.5628917115
 30
0.0
  0
VERTEX
  8
0
 10
112.730952444
 20
55.0828917115
 30
0.0
  0
VERTEX
  8
0
 10
112.730952444
 20
61.3171082885
 30
0.0
  0
VERTEX
  8
0
 10
113.596977848
 20
61.8371082885
 30
0.0
  0
VERTEX
  8
0
 10
112.730952444
 20
61.3371082885
 30
0.0
  0
VERTEX
  8
0
 10
106.7973215
 20
64.7628917115
 30
0.0
  0
VERTEX
  8
0
 10
105.931296096
 20
64.2628917115
 30
0.0
  0
VERTEX
  8
0
 10
106.7973215
 20
64.7828917115
 30
0.0
  0
VERTEX
  8
0
 10
106.7973215
 20
71.0171082885
 30
0.0
  0
VERTEX
  8
0
 10
105.931296096
 20
71.5371082885
 30
0.0
  0
VERTEX
  8
0
 10
106.7973215
 20
71.0371082885
 30
0.0
  0
VERTEX
  8
0
 10
112.730952444
 20
74.4628917115
 30
0.0
  0
VERTEX
  8
0
 10
113.596977848
 20
73.9628917115
 30
0.0
  0
VERTEX
  8
0
 10
112.730952444
 20
74.4828917115
 30
0.0
  0
VERTEX
  8
0
 10
112.730952444
 20
80.7171082885
 30
0.0
  0
VERTEX
  8
0
 10
113.596977848
 20
81.2371082885
 30
0.0
  0
VERTEX
  8
0
 10
112.730952444
 20
80.7371082885
 30
0.0
  0
VERTEX
  8
0
 10
106.7973215
 20
84.1628917115
 30
0.0
  0
VERTEX
  8
0
 10
105.931296096
 20
83.6628917115
 30
0.0
  0
VERTEX
  8
0
 10
106.7973215
 20
84.1828917115
 30
0.0
  0
VERTEX
  8
0
 10
106.7973215
 20
90.4171082885
 30
0.0
  0
VERTEX
  8
0
 10
105.931296096
 20
90.9371082885
 30
0.0
  0
VERTEX
  8
0
 10
106.7973215
 20
90.4371082885
 30
0.0
  0
VERTEX
  8
0
 10
112.730952444
 20
93.8628917115
 30
0.0
  0
VERTEX
  8
0
 10
113.596977848
 20
93.3628917115
 30
0.0
  0
VERTEX
  8
0
 10
112.730952444
 20
93.8828917115
 30
0.0
  0
VERTEX
  8
0
 10
112.730952444
 20
100.117108288
 30
0.0
  0
VERTEX
  8
0
 10
113.596977848
 20
100.637108288
 30
0.0
  0
VERTEX
  8
0
 10
112.730952444
 20
100.137108288
 30
0.0
  0
VERTEX
  8
0
 10
106.7973215
 20
103.562891712
 30
0.0
  0
VERTEX
  8
0
 10
105.931296096
 20
103.062891712
 30
0.0
  0
VERTEX
  8
0
 10
106.7973215
 20
103.582891712
 30
0.0
  0
VERTEX
  8
0
 10
106.7973215
 20
109.817108288
 30
0.0
  0
VERTEX
  8
0
 10
105.931296096
 20
110.337108288
 30
0.0
  0
VERTEX
  8
0
 10
106.7973215
 20
109.837108288
 30
0.0
  0
VERTEX
  8
0
 10
112.730952444
 20
113.262891712
 30
0.0
  0
VERTEX
  8
0
 10
113.596977848
 20
112.762891712
 30
0.0
  0
VERTEX
  8
0
 10
112.730952444
 20
113.282891712
 30
0.0
  0
VERTEX
  8
0
 10
112.730952444
 20
119.517108288
 30
0.0
  0
VERTEX
  8
0
 10
113.596977848
 20
120.037108288
 30
0.0
  0
VERTEX
  8
0
 10
112.730952444
 20
119.537108288
 30
0.0
  0
VERTEX
  8
0
 10
106.7973215
 20
122.962891712
 30
0.0
  0
VERTEX
  8
0
 10
105.931296096
 20
122.462891712
 30
0.0
  0
VERTEX
  8
0
 10
106.7973215
 20
122.982891712
 30
0.0
  0
VERTEX
  8
0
 10
106.7973215
 20
129.217108288
 30
0.0
  0
VERTEX
  8
0
 10
105.931296096
 20
129.737108288
 30
0.0
  0
VERTEX
  8
0
 10
106.7973215
 20
129.237108288
 30
0.0
  0
VERTEX
  8
0
 10
112.730952444
 20
132.662891712
 30
0.0
  0
VERTEX
  8
0
 10
113.596977848
 20
132.162891712
 30
0.0
  0
VERTEX
  8
0
 10
112.730952444
 20
132.682891712
 30
0.0
  0
VERTEX
  8
0
 10
112.730952444
 20
138.917108288
 30
0.0
  0
VERTEX
  8
0
 10
113.596977848
 20
139.437108288
 30
0.0
  0
VERTEX
  8
0
 10
112.730952444
 20
138.937108288
 30
0.0
  0
VERTEX
  8
0
 10
106.7973215
 20
142.362891712
 30
0.0
  0
VERTEX
  8
0
 10
105.931296096
 20
141.862891712
 30
0.0
  0
VERTEX
  8
0
 10
106.7973215
 20
142.382891712
 30
0.0
  0
VERTEX
  8
0
 10
106.7973215
 20
148.617108288
 30
0.0
  0
VERTEX
  8
0
 10
105.931296096
 20
149.137108288
 30
0.0
  0
VERTEX
  8
0
 10
106.7973215
 20
148.637108288
 30
0.0
  0
VERTEX
  8
0
 10
112.730952444
 20
152.062891712
 30
0.0
  0
VERTEX
  8
0
 10
113.596977848
 20
151.562891712
 30
0.0
  0
VERTEX
  8
0
 10
112.730952444
 20
152.082891712
 30
0.0
  0
VERTEX
  8
0
 10
112.730952444
 20
158.317108288
 30
0.0
  0
VERTEX
  8
0
 10
113.596977848
 20
158.837108288
 30
0.0
  0
VERTEX
  8
0
 10
112.730952444
 20
158.337108288
 30
0.0
  0
VERTEX
  8
0
 10
106.7973215
 20
161.762891712
 30
0.0
  0
VERTEX
  8
0
 10
105.931296096
 20
161.262891712
 30
0.0
  0
VERTEX
  8
0
 10
106.7973215
 20
161.782891712
 30
0.0
  0
VERTEX
  8
0
 10
98.1370674619
 20
176.762891712
 30
0.0
  0
VERTEX
  8
0
 10
92.2034365174
 20
173.337108288
 30
0.0
  0
VERTEX
  8
0
 10
99.1316397477
 20
161.337108288
 30
0.0
  0
SEQEND
  8
0
  0
POLYLINE
  8
0
 62
0
 70
0
 66
1
 10
0.0
 20
0.0
 30
0.0
  0
VERTEX
  8
0
 10
108.362705641
 20
152.7
 30
0.0
  0
VERTEX
  8
0
 10
108.362705641
 20
158.2
 30
0.0
  0
VERTEX
  8
0
 10
103.166553218
 20
155.2
 30
0.0
  0
VERTEX
  8
0
 10
108.362705641
 20
152.2
 30
0.0
  0
SEQEND
  8
0
  0
POLYLINE
  8
0
 62
0
 70
0
 66
1
 10
0.0
 20
0.0
 30
0.0
  0
VERTEX
  8
0
 10
120.229074696
 20
75.1
 30
0.0
  0
VERTEX
  8
0
 10
120.229074696
 20
80.6
 30
0.0
  0
VERTEX
  8
0
 10
115.032922273
 20
77.6
 30
0.0
  0
VERTEX
  8
0
 10
120.229074696
 20
74.6
 30
0.0
  0
SEQEND
  8
0
  0
POLYLINE
  8
0
 62
0
 70
0
 66
1
 10
0.0
 20
0.0
 30
0.0
  0
VERTEX
  8
0
 10
111.165568303
 20
84.8
 30
0.0
  0
VERTEX
  8
0
 10
111.165568303
 20
90.3
 30
0.0
  0
VERTEX
  8
0
 10
116.361720726
 20
87.3
 30
0.0
  0
VERTEX
  8
0
 10
111.165568303
 20
84.3
 30
0.0
  0
SEQEND
  8
0
  0
POLYLINE
  8
0
 62
0
 70
0
 66
1
 10
0.0
 20
0.0
 30
0.0
  0
VERTEX
  8
0
 10
111.165568303
 20
65.4
 30
0.0
  0
VERTEX
  8
0
 10
111.165568303
 20
70.9
 30
0.0
  0
VERTEX
  8
0
 10
116.361720726
 20
67.9
 30
0.0
  0
VERTEX
  8
0
 10
111.165568303
 20
64.9
 30
0.0
  0
SEQEND
  8
0
  0
POLYLINE
  8
0
 62
0
 70
0
 66
1
 10
0.0
 20
0.0
 30
0.0
  0
VERTEX
  8
0
 10
111.165568303
 20
7.2
 30
0.0
  0
VERTEX
  8
0
 10
111.165568303
 20
12.7
 30
0.0
  0
VERTEX
  8
0
 10
116.361720726
 20
9.7
 30
0.0
  0
VERTEX
  8
0
 10
111.165568303
 20
6.7
 30
0.0
  0
SEQEND
  8
0
  0
POLYLINE
  8
0
 62
0
 70
0
 66
1
 10
0.0
 20
0.0
 30
0.0
  0
VERTEX
  8
0
 10
120.229074696
 20
16.9
 30
0.0
  0
VERTEX
  8
0
 10
120.229074696
 20
22.4
 30
0.0
  0
VERTEX
  8
0
 10
115.032922273
 20
19.4
 30
0.0
  0
VERTEX
  8
0
 10
120.229074696
 20
16.4
 30
0.0
  0
SEQEND
  8
0
  0
POLYLINE
  8
0
 62
0
 70
0
 66
1
 10
0.0
 20
0.0
 30
0.0
  0
VERTEX
  8
0
 10
120.229074696
 20
94.5
 30
0.0
  0
VERTEX
  8
0
 10
120.229074696
 20
100.0
 30
0.0
  0
VERTEX
  8
0
 10
115.032922273
 20
97.0
 30
0.0
  0
VERTEX
  8
0
 10
120.229074696
 20
94.0
 30
0.0
  0
SEQEND
  8
0
  0
POLYLINE
  8
0
 62
0
 70
0
 66
1
 10
0.0
 20
0.0
 30
0.0
  0
VERTEX
  8
0
 10
111.165568303
 20
46.0
 30
0.0
  0
VERTEX
  8
0
 10
111.165568303
 20
51.5
 30
0.0
  0
VERTEX
  8
0
 10
116.361720726
 20
48.5
 30
0.0
  0
VERTEX
  8
0
 10
111.165568303
 20
45.5
 30
0.0
  0
SEQEND
  8
0
  0
POLYLINE
  8
0
 62
0
 70
0
 66
1
 10
0.0
 20
0.0
 30
0.0
  0
VERTEX
  8
0
 10
108.362705641
 20
94.5
 30
0.0
  0
VERTEX
  8
0
 10
108.362705641
 20
100.0
 30
0.0
  0
VERTEX
  8
0
 10
103.166553218
 20
97.0
 30
0.0
  0
VERTEX
  8
0
 10
108.362705641
 20
94.0
 30
0.0
  0
SEQEND
  8
0
  0
POLYLINE
  8
0
 62
0
 70
0
 66
1
 10
0.0
 20
0.0
 30
0.0
  0
VERTEX
  8
0
 10
120.229074696
 20
113.9
 30
0.0
  0
VERTEX
  8
0
 10
120.229074696
 20
119.4
 30
0.0
  0
VERTEX
  8
0
 10
115.032922273
 20
116.4
 30
0.0
  0
VERTEX
  8
0
 10
120.229074696
 20
113.4
 30
0.0
  0
SEQEND
  8
0
  0
POLYLINE
  8
0
 62
0
 70
0
 66
1
 10
0.0
 20
0.0
 30
0.0
  0
VERTEX
  8
0
 10
111.165568303
 20
123.6
 30
0.0
  0
VERTEX
  8
0
 10
111.165568303
 20
129.1
 30
0.0
  0
VERTEX
  8
0
 10
116.361720726
 20
126.1
 30
0.0
  0
VERTEX
  8
0
 10
111.165568303
 20
123.1
 30
0.0
  0
SEQEND
  8
0
  0
POLYLINE
  8
0
 62
0
 70
0
 66
1
 10
0.0
 20
0.0
 30
0.0
  0
VERTEX
  8
0
 10
108.362705641
 20
113.9
 30
0.0
  0
VERTEX
  8
0
 10
108.362705641
 20
119.4
 30
0.0
  0
VERTEX
  8
0
 10
103.166553218
 20
116.4
 30
0.0
  0
VERTEX
  8
0
 10
108.362705641
 20
113.4
 30
0.0
  0
SEQEND
  8
0
  0
POLYLINE
  8
0
 62
0
 70
0
 66
1
 10
0.0
 20
0.0
 30
0.0
  0
VERTEX
  8
0
 10
120.229074696
 20
36.3
 30
0.0
  0
VERTEX
  8
0
 10
120.229074696
 20
41.8
 30
0.0
  0
VERTEX
  8
0
 10
115.032922273
 20
38.8
 30
0.0
  0
VERTEX
  8
0
 10
120.229074696
 20
35.8
 30
0.0
  0
SEQEND
  8
0
  0
POLYLINE
  8
0
 62
0
 70
0
 66
1
 10
0.0
 20
0.0
 30
0.0
  0
VERTEX
  8
0
 10
120.229074696
 20
55.7
 30
0.0
  0
VERTEX
  8
0
 10
120.229074696
 20
61.2
 30
0.0
  0
VERTEX
  8
0
 10
115.032922273
 20
58.2
 30
0.0
  0
VERTEX
  8
0
 10
120.229074696
 20
55.2
 30
0.0
  0
SEQEND
  8
0
  0
POLYLINE
  8
0
 62
0
 70
0
 66
1
 10
0.0
 20
0.0
 30
0.0
  0
VERTEX
  8
0
 10
108.362705641
 20
133.3
 30
0.0
  0
VERTEX
  8
0
 10
108.362705641
 20
138.8
 30
0.0
  0
VERTEX
  8
0
 10
103.166553218
 20
135.8
 30
0.0
  0
VERTEX
  8
0
 10
108.362705641
 20
132.8
 30
0.0
  0
SEQEND
  8
0
  0
POLYLINE
  8
0
 62
0
 70
0
 66
1
 10
0.0
 20
0.0
 30
0.0
  0
VERTEX
  8
0
 10
99.2991992478
 20
143.0
 30
0.0
  0
VERTEX
  8
0
 10
99.2991992478
 20
148.5
 30
0.0
  0
VERTEX
  8
0
 10
104.49535167
 20
145.5
 30
0.0
  0
VERTEX
  8
0
 10
99.2991992478
 20
142.5
 30
0.0
  0
SEQEND
  8
0
  0
POLYLINE
  8
0
 62
0
 70
0
 66
1
 10
0.0
 20
0.0
 30
0.0
  0
VERTEX
  8
0
 10
111.165568303
 20
104.2
 30
0.0
  0
VERTEX
  8
0
 10
111.165568303
 20
109.7
 30
0.0
  0
VERTEX
  8
0
 10
116.361720726
 20
106.7
 30
0.0
  0
VERTEX
  8
0
 10
111.165568303
 20
103.7
 30
0.0
  0
SEQEND
  8
0
  0
POLYLINE
  8
0
 62
0
 70
0
 66
1
 10
0.0
 20
0.0
 30
0.0
  0
VERTEX
  8
0
 10
134.898306414
 20
7.2
 30
0.0
  0
VERTEX
  8
0
 10
134.898306414
 20
12.7
 30
0.0
  0
VERTEX
  8
0
 10
140.094458837
 20
9.7
 30
0.0
  0
VERTEX
  8
0
 10
134.898306414
 20
6.7
 30
0.0
  0
SEQEND
  8
0
  0
POLYLINE
  8
0
 62
0
 70
0
 66
1
 10
0.0
 20
0.0
 30
0.0
  0
VERTEX
  8
0
 10
132.095443752
 20
36.3
 30
0.0
  0
VERTEX
  8
0
 10
132.095443752
 20
41.8
 30
0.0
  0
VERTEX
  8
0
 10
126.899291329
 20
38.8
 30
0.0
  0
VERTEX
  8
0
 10
132.095443752
 20
35.8
 30
0.0
  0
SEQEND
  8
0
  0
POLYLINE
  8
0
 62
0
 70
0
 66
1
 10
0.0
 20
0.0
 30
0.0
  0
VERTEX
  8
0
 10
143.961812807
 20
36.3
 30
0.0
  0
VERTEX
  8
0
 10
143.961812807
 20
41.8
 30
0.0
  0
VERTEX
  8
0
 10
138.765660385
 20
38.8
 30
0.0
  0
VERTEX
  8
0
 10
143.961812807
 20
35.8
 30
0.0
  0
SEQEND
  8
0
  0
POLYLINE
  8
0
 62
0
 70
0
 66
1
 10
0.0
 20
0.0
 30
0.0
  0
VERTEX
  8
0
 10
136.463690555
 20
3.11710828847
 30
0.0
  0
VERTEX
  8
0
 10
137.329715959
 20
3.63710828847
 30
0.0
  0
VERTEX
  8
0
 10
136.463690555
 20
3.13710828847
 30
0.0
  0
VERTEX
  8
0
 10
130.530059611
 20
6.56289171153
 30
0.0
  0
VERTEX
  8
0
 10
129.664034207
 20
6.06289171153
 30
0.0
  0
VERTEX
  8
0
 10
130.530059611
 20
6.58289171153
 30
0.0
  0
VERTEX
  8
0
 10
130.530059611
 20
12.8171082885
 30
0.0
  0
VERTEX
  8
0
 10
129.664034207
 20
13.3371082885
 30
0.0
  0
VERTEX
  8
0
 10
130.530059611
 20
12.8371082885
 30
0.0
  0
VERTEX
  8
0
 10
136.463690555
 20
16.2628917115
 30
0.0
  0
VERTEX
  8
0
 10
137.329715959
 20
15.7628917115
 30
0.0
  0
VERTEX
  8
0
 10
136.463690555
 20
16.2828917115
 30
0.0
  0
VERTEX
  8
0
 10
136.463690555
 20
22.5171082885
 30
0.0
  0
VERTEX
  8
0
 10
137.329715959
 20
23.0371082885
 30
0.0
  0
VERTEX
  8
0
 10
136.463690555
 20
22.5371082885
 30
0.0
  0
VERTEX
  8
0
 10
130.530059611
 20
25.9628917115
 30
0.0
  0
VERTEX
  8
0
 10
129.664034207
 20
25.4628917115
 30
0.0
  0
VERTEX
  8
0
 10
130.530059611
 20
25.9828917115
 30
0.0
  0
VERTEX
  8
0
 10
130.530059611
 20
32.2171082885
 30
0.0
  0
VERTEX
  8
0
 10
129.664034207
 20
32.7371082885
 30
0.0
  0
VERTEX
  8
0
 10
130.530059611
 20
32.2371082885
 30
0.0
  0
VERTEX
  8
0
 10
136.463690555
 20
35.6628917115
 30
0.0
  0
VERTEX
  8
0
 10
137.329715959
 20
35.1628917115
 30
0.0
  0
VERTEX
  8
0
 10
136.463690555
 20
35.6828917115
 30
0.0
  0
VERTEX
  8
0
 10
136.463690555
 20
41.9171082885
 30
0.0
  0
VERTEX
  8
0
 10
137.329715959
 20
42.4371082885
 30
0.0
  0
VERTEX
  8
0
 10
136.463690555
 20
41.9371082885
 30
0.0
  0
VERTEX
  8
0
 10
130.530059611
 20
45.3628917115
 30
0.0
  0
VERTEX
  8
0
 10
129.664034207
 20
44.8628917115
 30
0.0
  0
VERTEX
  8
0
 10
130.530059611
 20
45.3828917115
 30
0.0
  0
VERTEX
  8
0
 10
130.530059611
 20
51.6171082885
 30
0.0
  0
VERTEX
  8
0
 10
129.664034207
 20
52.1371082885
 30
0.0
  0
VERTEX
  8
0
 10
130.530059611
 20
51.6371082885
 30
0.0
  0
VERTEX
  8
0
 10
136.463690555
 20
55.0628917115
 30
0.0
  0
VERTEX
  8
0
 10
137.329715959
 20
54.5628917115
 30
0.0
  0
VERTEX
  8
0
 10
136.463690555
 20
55.0828917115
 30
0.0
  0
VERTEX
  8
0
 10
136.463690555
 20
61.3171082885
 30
0.0
  0
VERTEX
  8
0
 10
137.329715959
 20
61.8371082885
 30
0.0
  0
VERTEX
  8
0
 10
136.463690555
 20
61.3371082885
 30
0.0
  0
VERTEX
  8
0
 10
130.530059611
 20
64.7628917115
 30
0.0
  0
VERTEX
  8
0
 10
129.664034207
 20
64.2628917115
 30
0.0
  0
VERTEX
  8
0
 10
130.530059611
 20
64.7828917115
 30
0.0
  0
VERTEX
  8
0
 10
130.530059611
 20
71.0171082885
 30
0.0
  0
VERTEX
  8
0
 10
129.664034207
 20
71.5371082885
 30
0.0
  0
VERTEX
  8
0
 10
130.530059611
 20
71.0371082885
 30
0.0
  0
VERTEX
  8
0
 10
136.463690555
 20
74.4628917115
 30
0.0
  0
VERTEX
  8
0
 10
137.329715959
 20
73.9628917115
 30
0.0
  0
VERTEX
  8
0
 10
136.463690555
 20
74.4828917115
 30
0.0
  0
VERTEX
  8
0
 10
136.463690555
 20
80.7171082885
 30
0.0
  0
VERTEX
  8
0
 10
137.329715959
 20
81.2371082885
 30
0.0
  0
VERTEX
  8
0
 10
136.463690555
 20
80.7371082885
 30
0.0
  0
VERTEX
  8
0
 10
130.530059611
 20
84.1628917115
 30
0.0
  0
VERTEX
  8
0
 10
129.664034207
 20
83.6628917115
 30
0.0
  0
VERTEX
  8
0
 10
130.530059611
 20
84.1828917115
 30
0.0
  0
VERTEX
  8
0
 10
130.530059611
 20
90.4171082885
 30
0.0
  0
VERTEX
  8
0
 10
129.664034207
 20
90.9371082885
 30
0.0
  0
VERTEX
  8
0
 10
130.530059611
 20
90.4371082885
 30
0.0
  0
VERTEX
  8
0
 10
136.463690555
 20
93.8628917115
 30
0.0
  0
VERTEX
  8
0
 10
137.329715959
 20
93.3628917115
 30
0.0
  0
VERTEX
  8
0
 10
136.463690555
 20
93.8828917115
 30
0.0
  0
VERTEX
  8
0
 10
136.463690555
 20
100.117108288
 30
0.0
  0
VERTEX
  8
0
 10
137.329715959
 20
100.637108288
 30
0.0
  0
VERTEX
  8
0
 10
136.463690555
 20
100.137108288
 30
0.0
  0
VERTEX
  8
0
 10
130.530059611
 20
103.562891712
 30
0.0
  0
VERTEX
  8
0
 10
129.664034207
 20
103.062891712
 30
0.0
  0
VERTEX
  8
0
 10
130.530059611
 20
103.582891712
 30
0.0
  0
VERTEX
  8
0
 10
130.530059611
 20
109.817108288
 30
0.0
  0
VERTEX
  8
0
 10
129.664034207
 20
110.337108288
 30
0.0
  0
VERTEX
  8
0
 10
130.530059611
 20
109.837108288
 30
0.0
  0
VERTEX
  8
0
 10
136.463690555
 20
113.262891712
 30
0.0
  0
VERTEX
  8
0
 10
137.329715959
 20
112.762891712
 30
0.0
  0
VERTEX
  8
0
 10
136.463690555
 20
113.282891712
 30
0.0
  0
VERTEX
  8
0
 10
136.463690555
 20
119.517108288
 30
0.0
  0
VERTEX
  8
0
 10
137.329715959
 20
120.037108288
 30
0.0
  0
VERTEX
  8
0
 10
136.463690555
 20
119.537108288
 30
0.0
  0
VERTEX
  8
0
 10
130.530059611
 20
122.962891712
 30
0.0
  0
VERTEX
  8
0
 10
129.664034207
 20
122.462891712
 30
0.0
  0
VERTEX
  8
0
 10
130.530059611
 20
122.982891712
 30
0.0
  0
VERTEX
  8
0
 10
130.530059611
 20
129.217108288
 30
0.0
  0
VERTEX
  8
0
 10
129.664034207
 20
129.737108288
 30
0.0
  0
VERTEX
  8
0
 10
130.530059611
 20
129.237108288
 30
0.0
  0
VERTEX
  8
0
 10
136.463690555
 20
132.662891712
 30
0.0
  0
VERTEX
  8
0
 10
137.329715959
 20
132.162891712
 30
0.0
  0
VERTEX
  8
0
 10
136.463690555
 20
132.682891712
 30
0.0
  0
VERTEX
  8
0
 10
136.463690555
 20
138.917108288
 30
0.0
  0
VERTEX
  8
0
 10
137.329715959
 20
139.437108288
 30
0.0
  0
VERTEX
  8
0
 10
136.463690555
 20
138.937108288
 30
0.0
  0
VERTEX
  8
0
 10
130.530059611
 20
142.362891712
 30
0.0
  0
VERTEX
  8
0
 10
129.664034207
 20
141.862891712
 30
0.0
  0
VERTEX
  8
0
 10
130.530059611
 20
142.382891712
 30
0.0
  0
VERTEX
  8
0
 10
130.530059611
 20
148.617108288
 30
0.0
  0
VERTEX
  8
0
 10
129.664034207
 20
149.137108288
 30
0.0
  0
VERTEX
  8
0
 10
130.530059611
 20
148.637108288
 30
0.0
  0
VERTEX
  8
0
 10
136.463690555
 20
152.062891712
 30
0.0
  0
VERTEX
  8
0
 10
137.329715959
 20
151.562891712
 30
0.0
  0
VERTEX
  8
0
 10
136.463690555
 20
152.082891712
 30
0.0
  0
VERTEX
  8
0
 10
136.463690555
 20
158.317108288
 30
0.0
  0
VERTEX
  8
0
 10
137.329715959
 20
158.837108288
 30
0.0
  0
VERTEX
  8
0
 10
136.463690555
 20
158.337108288
 30
0.0
  0
VERTEX
  8
0
 10
130.530059611
 20
161.762891712
 30
0.0
  0
VERTEX
  8
0
 10
129.664034207
 20
161.262891712
 30
0.0
  0
VERTEX
  8
0
 10
130.530059611
 20
161.782891712
 30
0.0
  0
VERTEX
  8
0
 10
121.869805573
 20
176.762891712
 30
0.0
  0
VERTEX
  8
0
 10
115.936174628
 20
173.337108288
 30
0.0
  0
VERTEX
  8
0
 10
122.864377859
 20
161.337108288
 30
0.0
  0
SEQEND
  8
0
  0
POLYLINE
  8
0
 62
0
 70
0
 66
1
 10
0.0
 20
0.0
 30
0.0
  0
VERTEX
  8
0
 10
132.095443752
 20
94.5
 30
0.0
  0
VERTEX
  8
0
 10
132.095443752
 20
100.0
 30
0.0
  0
VERTEX
  8
0
 10
126.899291329
 20
97.0
 30
0.0
  0
VERTEX
  8
0
 10
132.095443752
 20
94.0
 30
0.0
  0
SEQEND
  8
0
  0
POLYLINE
  8
0
 62
0
 70
0
 66
1
 10
0.0
 20
0.0
 30
0.0
  0
VERTEX
  8
0
 10
123.031937359
 20
104.2
 30
0.0
  0
VERTEX
  8
0
 10
123.031937359
 20
109.7
 30
0.0
  0
VERTEX
  8
0
 10
128.228089782
 20
106.7
 30
0.0
  0
VERTEX
  8
0
 10
123.031937359
 20
103.7
 30
0.0
  0
SEQEND
  8
0
  0
POLYLINE
  8
0
 62
0
 70
0
 66
1
 10
0.0
 20
0.0
 30
0.0
  0
VERTEX
  8
0
 10
111.165568303
 20
143.0
 30
0.0
  0
VERTEX
  8
0
 10
111.165568303
 20
148.5
 30
0.0
  0
VERTEX
  8
0
 10
116.361720726
 20
145.5
 30
0.0
  0
VERTEX
  8
0
 10
111.165568303
 20
142.5
 30
0.0
  0
SEQEND
  8
0
  0
POLYLINE
  8
0
 62
0
 70
0
 66
1
 10
0.0
 20
0.0
 30
0.0
  0
VERTEX
  8
0
 10
124.5973215
 20
3.11710828847
 30
0.0
  0
VERTEX
  8
0
 10
125.463346904
 20
3.63710828847
 30
0.0
  0
VERTEX
  8
0
 10
124.5973215
 20
3.13710828847
 30
0.0
  0
VERTEX
  8
0
 10
118.663690555
 20
6.56289171153
 30
0.0
  0
VERTEX
  8
0
 10
117.797665151
 20
6.06289171153
 30
0.0
  0
VERTEX
  8
0
 10
118.663690555
 20
6.58289171153
 30
0.0
  0
VERTEX
  8
0
 10
118.663690555
 20
12.8171082885
 30
0.0
  0
VERTEX
  8
0
 10
117.797665151
 20
13.3371082885
 30
0.0
  0
VERTEX
  8
0
 10
118.663690555
 20
12.8371082885
 30
0.0
  0
VERTEX
  8
0
 10
124.5973215
 20
16.2628917115
 30
0.0
  0
VERTEX
  8
0
 10
125.463346904
 20
15.7628917115
 30
0.0
  0
VERTEX
  8
0
 10
124.5973215
 20
16.2828917115
 30
0.0
  0
VERTEX
  8
0
 10
124.5973215
 20
22.5171082885
 30
0.0
  0
VERTEX
  8
0
 10
125.463346904
 20
23.0371082885
 30
0.0
  0
VERTEX
  8
0
 10
124.5973215
 20
22.5371082885
 30
0.0
  0
VERTEX
  8
0
 10
118.663690555
 20
25.9628917115
 30
0.0
  0
VERTEX
  8
0
 10
117.797665151
 20
25.4628917115
 30
0.0
  0
VERTEX
  8
0
 10
118.663690555
 20
25.9828917115
 30
0.0
  0
VERTEX
  8
0
 10
118.663690555
 20
32.2171082885
 30
0.0
  0
VERTEX
  8
0
 10
117.797665151
 20
32.7371082885
 30
0.0
  0
VERTEX
  8
0
 10
118.663690555
 20
32.2371082885
 30
0.0
  0
VERTEX
  8
0
 10
124.5973215
 20
35.6628917115
 30
0.0
  0
VERTEX
  8
0
 10
125.463346904
 20
35.1628917115
 30
0.0
  0
VERTEX
  8
0
 10
124.5973215
 20
35.6828917115
 30
0.0
  0
VERTEX
  8
0
 10
124.5973215
 20
41.9171082885
 30
0.0
  0
VERTEX
  8
0
 10
125.463346904
 20
42.4371082885
 30
0.0
  0
VERTEX
  8
0
 10
124.5973215
 20
41.9371082885
 30
0.0
  0
VERTEX
  8
0
 10
118.663690555
 20
45.3628917115
 30
0.0
  0
VERTEX
  8
0
 10
117.797665151
 20
44.8628917115
 30
0.0
  0
VERTEX
  8
0
 10
118.663690555
 20
45.3828917115
 30
0.0
  0
VERTEX
  8
0
 10
118.663690555
 20
51.6171082885
 30
0.0
  0
VERTEX
  8
0
 10
117.797665151
 20
52.1371082885
 30
0.0
  0
VERTEX
  8
0
 10
118.663690555
 20
51.6371082885
 30
0.0
  0
VERTEX
  8
0
 10
124.5973215
 20
55.0628917115
 30
0.0
  0
VERTEX
  8
0
 10
125.463346904
 20
54.5628917115
 30
0.0
  0
VERTEX
  8
0
 10
124.5973215
 20
55.0828917115
 30
0.0
  0
VERTEX
  8
0
 10
124.5973215
 20
61.3171082885
 30
0.0
  0
VERTEX
  8
0
 10
125.463346904
 20
61.8371082885
 30
0.0
  0
VERTEX
  8
0
 10
124.5973215
 20
61.3371082885
 30
0.0
  0
VERTEX
  8
0
 10
118.663690555
 20
64.7628917115
 30
0.0
  0
VERTEX
  8
0
 10
117.797665151
 20
64.2628917115
 30
0.0
  0
VERTEX
  8
0
 10
118.663690555
 20
64.7828917115
 30
0.0
  0
VERTEX
  8
0
 10
118.663690555
 20
71.0171082885
 30
0.0
  0
VERTEX
  8
0
 10
117.797665151
 20
71.5371082885
 30
0.0
  0
VERTEX
  8
0
 10
118.663690555
 20
71.0371082885
 30
0.0
  0
VERTEX
  8
0
 10
124.5973215
 20
74.4628917115
 30
0.0
  0
VERTEX
  8
0
 10
125.463346904
 20
73.9628917115
 30
0.0
  0
VERTEX
  8
0
 10
124.5973215
 20
74.4828917115
 30
0.0
  0
VERTEX
  8
0
 10
124.5973215
 20
80.7171082885
 30
0.0
  0
VERTEX
  8
0
 10
125.463346904
 20
81.2371082885
 30
0.0
  0
VERTEX
  8
0
 10
124.5973215
 20
80.7371082885
 30
0.0
  0
VERTEX
  8
0
 10
118.663690555
 20
84.1628917115
 30
0.0
  0
VERTEX
  8
0
 10
117.797665151
 20
83.6628917115
 30
0.0
  0
VERTEX
  8
0
 10
118.663690555
 20
84.1828917115
 30
0.0
  0
VERTEX
  8
0
 10
118.663690555
 20
90.4171082885
 30
0.0
  0
VERTEX
  8
0
 10
117.797665151
 20
90.9371082885
 30
0.0
  0
VERTEX
  8
0
 10
118.663690555
 20
90.4371082885
 30
0.0
  0
VERTEX
  8
0
 10
124.5973215
 20
93.8628917115
 30
0.0
  0
VERTEX
  8
0
 10
125.463346904
 20
93.3628917115
 30
0.0
  0
VERTEX
  8
0
 10
124.5973215
 20
93.8828917115
 30
0.0
  0
VERTEX
  8
0
 10
124.5973215
 20
100.117108288
 30
0.0
  0
VERTEX
  8
0
 10
125.463346904
 20
100.637108288
 30
0.0
  0
VERTEX
  8
0
 10
124.5973215
 20
100.137108288
 30
0.0
  0
VERTEX
  8
0
 10
118.663690555
 20
103.562891712
 30
0.0
  0
VERTEX
  8
0
 10
117.797665151
 20
103.062891712
 30
0.0
  0
VERTEX
  8
0
 10
118.663690555
 20
103.582891712
 30
0.0
  0
VERTEX
  8
0
 10
118.663690555
 20
109.817108288
 30
0.0
  0
VERTEX
  8
0
 10
117.797665151
 20
110.337108288
 30
0.0
  0
VERTEX
  8
0
 10
118.663690555
 20
109.837108288
 30
0.0
  0
VERTEX
  8
0
 10
124.5973215
 20
113.262891712
 30
0.0
  0
VERTEX
  8
0
 10
125.463346904
 20
112.762891712
 30
0.0
  0
VERTEX
  8
0
 10
124.5973215
 20
113.282891712
 30
0.0
  0
VERTEX
  8
0
 10
124.5973215
 20
119.517108288
 30
0.0
  0
VERTEX
  8
0
 10
125.463346904
 20
120.037108288
 30
0.0
  0
VERTEX
  8
0
 10
124.5973215
 20
119.537108288
 30
0.0
  0
VERTEX
  8
0
 10
118.663690555
 20
122.962891712
 30
0.0
  0
VERTEX
  8
0
 10
117.797665151
 20
122.462891712
 30
0.0
  0
VERTEX
  8
0
 10
118.663690555
 20
122.982891712
 30
0.0
  0
VERTEX
  8
0
 10
118.663690555
 20
129.217108288
 30
0.0
  0
VERTEX
  8
0
 10
117.797665151
 20
129.737108288
 30
0.0
  0
VERTEX
  8
0
 10
118.663690555
 20
129.237108288
 30
0.0
  0
VERTEX
  8
0
 10
124.5973215
 20
132.662891712
 30
0.0
  0
VERTEX
  8
0
 10
125.463346904
 20
132.162891712
 30
0.0
  0
VERTEX
  8
0
 10
124.5973215
 20
132.682891712
 30
0.0
  0
VERTEX
  8
0
 10
124.5973215
 20
138.917108288
 30
0.0
  0
VERTEX
  8
0
 10
125.463346904
 20
139.437108288
 30
0.0
  0
VERTEX
  8
0
 10
124.5973215
 20
138.937108288
 30
0.0
  0
VERTEX
  8
0
 10
118.663690555
 20
142.362891712
 30
0.0
  0
VERTEX
  8
0
 10
117.797665151
 20
141.862891712
 30
0.0
  0
VERTEX
  8
0
 10
118.663690555
 20
142.382891712
 30
0.0
  0
VERTEX
  8
0
 10
118.663690555
 20
148.617108288
 30
0.0
  0
VERTEX
  8
0
 10
117.797665151
 20
149.137108288
 30
0.0
  0
VERTEX
  8
0
 10
118.663690555
 20
148.637108288
 30
0.0
  0
VERTEX
  8
0
 10
124.5973215
 20
152.062891712
 30
0.0
  0
VERTEX
  8
0
 10
125.463346904
 20
151.562891712
 30
0.0
  0
VERTEX
  8
0
 10
124.5973215
 20
152.082891712
 30
0.0
  0
VERTEX
  8
0
 10
124.5973215
 20
158.317108288
 30
0.0
  0
VERTEX
  8
0
 10
125.463346904
 20
158.837108288
 30
0.0
  0
VERTEX
  8
0
 10
124.5973215
 20
158.337108288
 30
0.0
  0
VERTEX
  8
0
 10
118.663690555
 20
161.762891712
 30
0.0
  0
VERTEX
  8
0
 10
117.797665151
 20
161.262891712
 30
0.0
  0
VERTEX
  8
0
 10
118.663690555
 20
161.782891712
 30
0.0
  0
VERTEX
  8
0
 10
110.003436517
 20
176.762891712
 30
0.0
  0
VERTEX
  8
0
 10
104.069805573
 20
173.337108288
 30
0.0
  0
VERTEX
  8
0
 10
110.998008803
 20
161.337108288
 30
0.0
  0
SEQEND
  8
0
  0
POLYLINE
  8
0
 62
0
 70
0
 66
1
 10
0.0
 20
0.0
 30
0.0
  0
VERTEX
  8
0
 10
123.031937359
 20
46.0
 30
0.0
  0
VERTEX
  8
0
 10
123.031937359
 20
51.5
 30
0.0
  0
VERTEX
  8
0
 10
128.228089782
 20
48.5
 30
0.0
  0
VERTEX
  8
0
 10
123.031937359
 20
45.5
 30
0.0
  0
SEQEND
  8
0
  0
POLYLINE
  8
0
 62
0
 70
0
 66
1
 10
0.0
 20
0.0
 30
0.0
  0
VERTEX
  8
0
 10
132.095443752
 20
16.9
 30
0.0
  0
VERTEX
  8
0
 10
132.095443752
 20
22.4
 30
0.0
  0
VERTEX
  8
0
 10
126.899291329
 20
19.4
 30
0.0
  0
VERTEX
  8
0
 10
132.095443752
 20
16.4
 30
0.0
  0
SEQEND
  8
0
  0
POLYLINE
  8
0
 62
0
 70
0
 66
1
 10
0.0
 20
0.0
 30
0.0
  0
VERTEX
  8
0
 10
132.095443752
 20
55.7
 30
0.0
  0
VERTEX
  8
0
 10
132.095443752
 20
61.2
 30
0.0
  0
VERTEX
  8
0
 10
126.899291329
 20
58.2
 30
0.0
  0
VERTEX
  8
0
 10
132.095443752
 20
55.2
 30
0.0
  0
SEQEND
  8
0
  0
POLYLINE
  8
0
 62
0
 70
0
 66
1
 10
0.0
 20
0.0
 30
0.0
  0
VERTEX
  8
0
 10
132.095443752
 20
75.1
 30
0.0
  0
VERTEX
  8
0
 10
132.095443752
 20
80.6
 30
0.0
  0
VERTEX
  8
0
 10
126.899291329
 20
77.6
 30
0.0
  0
VERTEX
  8
0
 10
132.095443752
 20
74.6
 30
0.0
  0
SEQEND
  8
0
  0
POLYLINE
  8
0
 62
0
 70
0
 66
1
 10
0.0
 20
0.0
 30
0.0
  0
VERTEX
  8
0
 10
123.031937359
 20
7.2
 30
0.0
  0
VERTEX
  8
0
 10
123.031937359
 20
12.7
 30
0.0
  0
VERTEX
  8
0
 10
128.228089782
 20
9.7
 30
0.0
  0
VERTEX
  8
0
 10
123.031937359
 20
6.7
 30
0.0
  0
SEQEND
  8
0
  0
POLYLINE
  8
0
 62
0
 70
0
 66
1
 10
0.0
 20
0.0
 30
0.0
  0
VERTEX
  8
0
 10
123.031937359
 20
84.8
 30
0.0
  0
VERTEX
  8
0
 10
123.031937359
 20
90.3
 30
0.0
  0
VERTEX
  8
0
 10
128.228089782
 20
87.3
 30
0.0
  0
VERTEX
  8
0
 10
123.031937359
 20
84.3
 30
0.0
  0
SEQEND
  8
0
  0
POLYLINE
  8
0
 62
0
 70
0
 66
1
 10
0.0
 20
0.0
 30
0.0
  0
VERTEX
  8
0
 10
123.031937359
 20
123.6
 30
0.0
  0
VERTEX
  8
0
 10
123.031937359
 20
129.1
 30
0.0
  0
VERTEX
  8
0
 10
128.228089782
 20
126.1
 30
0.0
  0
VERTEX
  8
0
 10
123.031937359
 20
123.1
 30
0.0
  0
SEQEND
  8
0
  0
POLYLINE
  8
0
 62
0
 70
0
 66
1
 10
0.0
 20
0.0
 30
0.0
  0
VERTEX
  8
0
 10
132.095443752
 20
133.3
 30
0.0
  0
VERTEX
  8
0
 10
132.095443752
 20
138.8
 30
0.0
  0
VERTEX
  8
0
 10
126.899291329
 20
135.8
 30
0.0
  0
VERTEX
  8
0
 10
132.095443752
 20
132.8
 30
0.0
  0
SEQEND
  8
0
  0
POLYLINE
  8
0
 62
0
 70
0
 66
1
 10
0.0
 20
0.0
 30
0.0
  0
VERTEX
  8
0
 10
123.031937359
 20
143.0
 30
0.0
  0
VERTEX
  8
0
 10
123.031937359
 20
148.5
 30
0.0
  0
VERTEX
  8
0
 10
128.228089782
 20
145.5
 30
0.0
  0
VERTEX
  8
0
 10
123.031937359
 20
142.5
 30
0.0
  0
SEQEND
  8
0
  0
POLYLINE
  8
0
 62
0
 70
0
 66
1
 10
0.0
 20
0.0
 30
0.0
  0
VERTEX
  8
0
 10
132.095443752
 20
152.7
 30
0.0
  0
VERTEX
  8
0
 10
132.095443752
 20
158.2
 30
0.0
  0
VERTEX
  8
0
 10
126.899291329
 20
155.2
 30
0.0
  0
VERTEX
  8
0
 10
132.095443752
 20
152.2
 30
0.0
  0
SEQEND
  8
0
  0
POLYLINE
  8
0
 62
0
 70
0
 66
1
 10
0.0
 20
0.0
 30
0.0
  0
VERTEX
  8
0
 10
120.229074696
 20
152.7
 30
0.0
  0
VERTEX
  8
0
 10
120.229074696
 20
158.2
 30
0.0
  0
VERTEX
  8
0
 10
115.032922273
 20
155.2
 30
0.0
  0
VERTEX
  8
0
 10
120.229074696
 20
152.2
 30
0.0
  0
SEQEND
  8
0
  0
POLYLINE
  8
0
 62
0
 70
0
 66
1
 10
0.0
 20
0.0
 30
0.0
  0
VERTEX
  8
0
 10
132.095443752
 20
113.9
 30
0.0
  0
VERTEX
  8
0
 10
132.095443752
 20
119.4
 30
0.0
  0
VERTEX
  8
0
 10
126.899291329
 20
116.4
 30
0.0
  0
VERTEX
  8
0
 10
132.095443752
 20
113.4
 30
0.0
  0
SEQEND
  8
0
  0
POLYLINE
  8
0
 62
0
 70
0
 66
1
 10
0.0
 20
0.0
 30
0.0
  0
VERTEX
  8
0
 10
123.031937359
 20
26.6
 30
0.0
  0
VERTEX
  8
0
 10
123.031937359
 20
32.1
 30
0.0
  0
VERTEX
  8
0
 10
128.228089782
 20
29.1
 30
0.0
  0
VERTEX
  8
0
 10
123.031937359
 20
26.1
 30
0.0
  0
SEQEND
  8
0
  0
POLYLINE
  8
0
 62
0
 70
0
 66
1
 10
0.0
 20
0.0
 30
0.0
  0
VERTEX
  8
0
 10
123.031937359
 20
65.4
 30
0.0
  0
VERTEX
  8
0
 10
123.031937359
 20
70.9
 30
0.0
  0
VERTEX
  8
0
 10
128.228089782
 20
67.9
 30
0.0
  0
VERTEX
  8
0
 10
123.031937359
 20
64.9
 30
0.0
  0
SEQEND
  8
0
  0
POLYLINE
  8
0
 62
0
 70
0
 66
1
 10
0.0
 20
0.0
 30
0.0
  0
VERTEX
  8
0
 10
143.961812807
 20
16.9
 30
0.0
  0
VERTEX
  8
0
 10
143.961812807
 20
22.4
 30
0.0
  0
VERTEX
  8
0
 10
138.765660385
 20
19.4
 30
0.0
  0
VERTEX
  8
0
 10
143.961812807
 20
16.4
 30
0.0
  0
SEQEND
  8
0
  0
POLYLINE
  8
0
 62
0
 70
0
 66
1
 10
0.0
 20
0.0
 30
0.0
  0
VERTEX
  8
0
 10
134.898306414
 20
26.6
 30
0.0
  0
VERTEX
  8
0
 10
134.898306414
 20
32.1
 30
0.0
  0
VERTEX
  8
0
 10
140.094458837
 20
29.1
 30
0.0
  0
VERTEX
  8
0
 10
134.898306414
 20
26.1
 30
0.0
  0
SEQEND
  8
0
  0
POLYLINE
  8
0
 62
0
 70
0
 66
1
 10
0.0
 20
0.0
 30
0.0
  0
VERTEX
  8
0
 10
134.898306414
 20
143.0
 30
0.0
  0
VERTEX
  8
0
 10
134.898306414
 20
148.5
 30
0.0
  0
VERTEX
  8
0
 10
140.094458837
 20
145.5
 30
0.0
  0
VERTEX
  8
0
 10
134.898306414
 20
142.5
 30
0.0
  0
SEQEND
  8
0
  0
POLYLINE
  8
0
 62
0
 70
0
 66
1
 10
0.0
 20
0.0
 30
0.0
  0
VERTEX
  8
0
 10
146.76467547
 20
7.2
 30
0.0
  0
VERTEX
  8
0
 10
146.76467547
 20
12.7
 30
0.0
  0
VERTEX
  8
0
 10
151.960827893
 20
9.7
 30
0.0
  0
VERTEX
  8
0
 10
146.76467547
 20
6.7
 30
0.0
  0
SEQEND
  8
0
  0
POLYLINE
  8
0
 62
0
 70
0
 66
1
 10
0.0
 20
0.0
 30
0.0
  0
VERTEX
  8
0
 10
143.961812807
 20
75.1
 30
0.0
  0
VERTEX
  8
0
 10
143.961812807
 20
80.6
 30
0.0
  0
VERTEX
  8
0
 10
138.765660385
 20
77.6
 30
0.0
  0
VERTEX
  8
0
 10
143.961812807
 20
74.6
 30
0.0
  0
SEQEND
  8
0
  0
POLYLINE
  8
0
 62
0
 70
0
 66
1
 10
0.0
 20
0.0
 30
0.0
  0
VERTEX
  8
0
 10
134.898306414
 20
84.8
 30
0.0
  0
VERTEX
  8
0
 10
134.898306414
 20
90.3
 30
0.0
  0
VERTEX
  8
0
 10
140.094458837
 20
87.3
 30
0.0
  0
VERTEX
  8
0
 10
134.898306414
 20
84.3
 30
0.0
  0
SEQEND
  8
0
  0
POLYLINE
  8
0
 62
0
 70
0
 66
1
 10
0.0
 20
0.0
 30
0.0
  0
VERTEX
  8
0
 10
143.961812807
 20
133.3
 30
0.0
  0
VERTEX
  8
0
 10
143.961812807
 20
138.8
 30
0.0
  0
VERTEX
  8
0
 10
138.765660385
 20
135.8
 30
0.0
  0
VERTEX
  8
0
 10
143.961812807
 20
132.8
 30
0.0
  0
SEQEND
  8
0
  0
POLYLINE
  8
0
 62
0
 70
0
 66
1
 10
0.0
 20
0.0
 30
0.0
  0
VERTEX
  8
0
 10
143.961812807
 20
152.7
 30
0.0
  0
VERTEX
  8
0
 10
143.961812807
 20
158.2
 30
0.0
  0
VERTEX
  8
0
 10
138.765660385
 20
155.2
 30
0.0
  0
VERTEX
  8
0
 10
143.961812807
 20
152.2
 30
0.0
  0
SEQEND
  8
0
  0
POLYLINE
  8
0
 62
0
 70
0
 66
1
 10
0.0
 20
0.0
 30
0.0
  0
VERTEX
  8
0
 10
148.330059611
 20
3.11710828847
 30
0.0
  0
VERTEX
  8
0
 10
149.196085015
 20
3.63710828847
 30
0.0
  0
VERTEX
  8
0
 10
148.330059611
 20
3.13710828847
 30
0.0
  0
VERTEX
  8
0
 10
142.396428666
 20
6.56289171153
 30
0.0
  0
VERTEX
  8
0
 10
141.530403263
 20
6.06289171153
 30
0.0
  0
VERTEX
  8
0
 10
142.396428666
 20
6.58289171153
 30
0.0
  0
VERTEX
  8
0
 10
142.396428666
 20
12.8171082885
 30
0.0
  0
VERTEX
  8
0
 10
141.530403263
 20
13.3371082885
 30
0.0
  0
VERTEX
  8
0
 10
142.396428666
 20
12.8371082885
 30
0.0
  0
VERTEX
  8
0
 10
148.330059611
 20
16.2628917115
 30
0.0
  0
VERTEX
  8
0
 10
149.196085015
 20
15.7628917115
 30
0.0
  0
VERTEX
  8
0
 10
148.330059611
 20
16.2828917115
 30
0.0
  0
VERTEX
  8
0
 10
148.330059611
 20
22.5171082885
 30
0.0
  0
VERTEX
  8
0
 10
149.196085015
 20
23.0371082885
 30
0.0
  0
VERTEX
  8
0
 10
148.330059611
 20
22.5371082885
 30
0.0
  0
VERTEX
  8
0
 10
142.396428666
 20
25.9628917115
 30
0.0
  0
VERTEX
  8
0
 10
141.530403263
 20
25.4628917115
 30
0.0
  0
VERTEX
  8
0
 10
142.396428666
 20
25.9828917115
 30
0.0
  0
VERTEX
  8
0
 10
142.396428666
 20
32.2171082885
 30
0.0
  0
VERTEX
  8
0
 10
141.530403263
 20
32.7371082885
 30
0.0
  0
VERTEX
  8
0
 10
142.396428666
 20
32.2371082885
 30
0.0
  0
VERTEX
  8
0
 10
148.330059611
 20
35.6628917115
 30
0.0
  0
VERTEX
  8
0
 10
149.196085015
 20
35.1628917115
 30
0.0
  0
VERTEX
  8
0
 10
148.330059611
 20
35.6828917115
 30
0.0
  0
VERTEX
  8
0
 10
148.330059611
 20
41.9171082885
 30
0.0
  0
VERTEX
  8
0
 10
149.196085015
 20
42.4371082885
 30
0.0
  0
VERTEX
  8
0
 10
148.330059611
 20
41.9371082885
 30
0.0
  0
VERTEX
  8
0
 10
142.396428666
 20
45.3628917115
 30
0.0
  0
VERTEX
  8
0
 10
141.530403263
 20
44.8628917115
 30
0.0
  0
VERTEX
  8
0
 10
142.396428666
 20
45.3828917115
 30
0.0
  0
VERTEX
  8
0
 10
142.396428666
 20
51.6171082885
 30
0.0
  0
VERTEX
  8
0
 10
141.530403263
 20
52.1371082885
 30
0.0
  0
VERTEX
  8
0
 10
142.396428666
 20
51.6371082885
 30
0.0
  0
VERTEX
  8
0
 10
148.330059611
 20
55.0628917115
 30
0.0
  0
VERTEX
  8
0
 10
149.196085015
 20
54.5628917115
 30
0.0
  0
VERTEX
  8
0
 10
148.330059611
 20
55.0828917115
 30
0.0
  0
VERTEX
  8
0
 10
148.330059611
 20
61.3171082885
 30
0.0
  0
VERTEX
  8
0
 10
149.196085015
 20
61.8371082885
 30
0.0
  0
VERTEX
  8
0
 10
148.330059611
 20
61.3371082885
 30
0.0
  0
VERTEX
  8
0
 10
142.396428666
 20
64.7628917115
 30
0.0
  0
VERTEX
  8
0
 10
141.530403263
 20
64.2628917115
 30
0.0
  0
VERTEX
  8
0
 10
142.396428666
 20
64.7828917115
 30
0.0
  0
VERTEX
  8
0
 10
142.396428666
 20
71.0171082885
 30
0.0
  0
VERTEX
  8
0
 10
141.530403263
 20
71.5371082885
 30
0.0
  0
VERTEX
  8
0
 10
142.396428666
 20
71.0371082885
 30
0.0
  0
VERTEX
  8
0
 10
148.330059611
 20
74.4628917115
 30
0.0
  0
VERTEX
  8
0
 10
149.196085015
 20
73.9628917115
 30
0.0
  0
VERTEX
  8
0
 10
148.330059611
 20
74.4828917115
 30
0.0
  0
VERTEX
  8
0
 10
148.330059611
 20
80.7171082885
 30
0.0
  0
VERTEX
  8
0
 10
149.196085015
 20
81.2371082885
 30
0.0
  0
VERTEX
  8
0
 10
148.330059611
 20
80.7371082885
 30
0.0
  0
VERTEX
  8
0
 10
142.396428666
 20
84.1628917115
 30
0.0
  0
VERTEX
  8
0
 10
141.530403263
 20
83.6628917115
 30
0.0
  0
VERTEX
  8
0
 10
142.396428666
 20
84.1828917115
 30
0.0
  0
VERTEX
  8
0
 10
142.396428666
 20
90.4171082885
 30
0.0
  0
VERTEX
  8
0
 10
141.530403263
 20
90.9371082885
 30
0.0
  0
VERTEX
  8
0
 10
142.396428666
 20
90.4371082885
 30
0.0
  0
VERTEX
  8
0
 10
148.330059611
 20
93.8628917115
 30
0.0
  0
VERTEX
  8
0
 10
149.196085015
 20
93.3628917115
 30
0.0
  0
VERTEX
  8
0
 10
148.330059611
 20
93.8828917115
 30
0.0
  0
VERTEX
  8
0
 10
148.330059611
 20
100.117108288
 30
0.0
  0
VERTEX
  8
0
 10
149.196085015
 20
100.637108288
 30
0.0
  0
VERTEX
  8
0
 10
148.330059611
 20
100.137108288
 30
0.0
  0
VERTEX
  8
0
 10
142.396428666
 20
103.562891712
 30
0.0
  0
VERTEX
  8
0
 10
141.530403263
 20
103.062891712
 30
0.0
  0
VERTEX
  8
0
 10
142.396428666
 20
103.582891712
 30
0.0
  0
VERTEX
  8
0
 10
142.396428666
 20
109.817108288
 30
0.0
  0
VERTEX
  8
0
 10
141.530403263
 20
110.337108288
 30
0.0
  0
VERTEX
  8
0
 10
142.396428666
 20
109.837108288
 30
0.0
  0
VERTEX
  8
0
 10
148.330059611
 20
113.262891712
 30
0.0
  0
VERTEX
  8
0
 10
149.196085015
 20
112.762891712
 30
0.0
  0
VERTEX
  8
0
 10
148.330059611
 20
113.282891712
 30
0.0
  0
VERTEX
  8
0
 10
148.330059611
 20
119.517108288
 30
0.0
  0
VERTEX
  8
0
 10
149.196085015
 20
120.037108288
 30
0.0
  0
VERTEX
  8
0
 10
148.330059611
 20
119.537108288
 30
0.0
  0
VERTEX
  8
0
 10
142.396428666
 20
122.962891712
 30
0.0
  0
VERTEX
  8
0
 10
141.530403263
 20
122.462891712
 30
0.0
  0
VERTEX
  8
0
 10
142.396428666
 20
122.982891712
 30
0.0
  0
VERTEX
  8
0
 10
142.396428666
 20
129.217108288
 30
0.0
  0
VERTEX
  8
0
 10
141.530403263
 20
129.737108288
 30
0.0
  0
VERTEX
  8
0
 10
142.396428666
 20
129.237108288
 30
0.0
  0
VERTEX
  8
0
 10
148.330059611
 20
132.662891712
 30
0.0
  0
VERTEX
  8
0
 10
149.196085015
 20
132.162891712
 30
0.0
  0
VERTEX
  8
0
 10
148.330059611
 20
132.682891712
 30
0.0
  0
VERTEX
  8
0
 10
148.330059611
 20
138.917108288
 30
0.0
  0
VERTEX
  8
0
 10
149.196085015
 20
139.437108288
 30
0.0
  0
VERTEX
  8
0
 10
148.330059611
 20
138.937108288
 30
0.0
  0
VERTEX
  8
0
 10
142.396428666
 20
142.362891712
 30
0.0
  0
VERTEX
  8
0
 10
141.530403263
 20
141.862891712
 30
0.0
  0
VERTEX
  8
0
 10
142.396428666
 20
142.382891712
 30
0.0
  0
VERTEX
  8
0
 10
142.396428666
 20
148.617108288
 30
0.0
  0
VERTEX
  8
0
 10
141.530403263
 20
149.137108288
 30
0.0
  0
VERTEX
  8
0
 10
142.396428666
 20
148.637108288
 30
0.0
  0
VERTEX
  8
0
 10
148.330059611
 20
152.062891712
 30
0.0
  0
VERTEX
  8
0
 10
149.196085015
 20
151.562891712
 30
0.0
  0
VERTEX
  8
0
 10
148.330059611
 20
152.082891712
 30
0.0
  0
VERTEX
  8
0
 10
148.330059611
 20
158.317108288
 30
0.0
  0
VERTEX
  8
0
 10
149.196085015
 20
158.837108288
 30
0.0
  0
VERTEX
  8
0
 10
148.330059611
 20
158.337108288
 30
0.0
  0
VERTEX
  8
0
 10
142.396428666
 20
161.762891712
 30
0.0
  0
VERTEX
  8
0
 10
141.530403263
 20
161.262891712
 30
0.0
  0
VERTEX
  8
0
 10
142.396428666
 20
161.782891712
 30
0.0
  0
VERTEX
  8
0
 10
133.736174628
 20
176.762891712
 30
0.0
  0
VERTEX
  8
0
 10
127.802543684
 20
173.337108288
 30
0.0
  0
VERTEX
  8
0
 10
134.730746914
 20
161.337108288
 30
0.0
  0
SEQEND
  8
0
  0
POLYLINE
  8
0
 62
0
 70
0
 66
1
 10
0.0
 20
0.0
 30
0.0
  0
VERTEX
  8
0
 10
134.898306414
 20
46.0
 30
0.0
  0
VERTEX
  8
0
 10
134.898306414
 20
51.5
 30
0.0
  0
VERTEX
  8
0
 10
140.094458837
 20
48.5
 30
0.0
  0
VERTEX
  8
0
 10
134.898306414
 20
45.5
 30
0.0
  0
SEQEND
  8
0
  0
POLYLINE
  8
0
 62
0
 70
0
 66
1
 10
0.0
 20
0.0
 30
0.0
  0
VERTEX
  8
0
 10
143.961812807
 20
94.5
 30
0.0
  0
VERTEX
  8
0
 10
143.961812807
 20
100.0
 30
0.0
  0
VERTEX
  8
0
 10
138.765660385
 20
97.0
 30
0.0
  0
VERTEX
  8
0
 10
143.961812807
 20
94.0
 30
0.0
  0
SEQEND
  8
0
  0
POLYLINE
  8
0
 62
0
 70
0
 66
1
 10
0.0
 20
0.0
 30
0.0
  0
VERTEX
  8
0
 10
134.898306414
 20
123.6
 30
0.0
  0
VERTEX
  8
0
 10
134.898306414
 20
129.1
 30
0.0
  0
VERTEX
  8
0
 10
140.094458837
 20
126.1
 30
0.0
  0
VERTEX
  8
0
 10
134.898306414
 20
123.1
 30
0.0
  0
SEQEND
  8
0
  0
POLYLINE
  8
0
 62
0
 70
0
 66
1
 10
0.0
 20
0.0
 30
0.0
  0
VERTEX
  8
0
 10
155.828181863
 20
16.9
 30
0.0
  0
VERTEX
  8
0
 10
155.828181863
 20
22.4
 30
0.0
  0
VERTEX
  8
0
 10
150.63202944
 20
19.4
 30
0.0
  0
VERTEX
  8
0
 10
155.828181863
 20
16.4
 30
0.0
  0
SEQEND
  8
0
  0
POLYLINE
  8
0
 62
0
 70
0
 66
1
 10
0.0
 20
0.0
 30
0.0
  0
VERTEX
  8
0
 10
146.76467547
 20
26.6
 30
0.0
  0
VERTEX
  8
0
 10
146.76467547
 20
32.1
 30
0.0
  0
VERTEX
  8
0
 10
151.960827893
 20
29.1
 30
0.0
  0
VERTEX
  8
0
 10
146.76467547
 20
26.1
 30
0.0
  0
SEQEND
  8
0
  0
POLYLINE
  8
0
 62
0
 70
0
 66
1
 10
0.0
 20
0.0
 30
0.0
  0
VERTEX
  8
0
 10
143.961812807
 20
55.7
 30
0.0
  0
VERTEX
  8
0
 10
143.961812807
 20
61.2
 30
0.0
  0
VERTEX
  8
0
 10
138.765660385
 20
58.2
 30
0.0
  0
VERTEX
  8
0
 10
143.961812807
 20
55.2
 30
0.0
  0
SEQEND
  8
0
  0
POLYLINE
  8
0
 62
0
 70
0
 66
1
 10
0.0
 20
0.0
 30
0.0
  0
VERTEX
  8
0
 10
134.898306414
 20
104.2
 30
0.0
  0
VERTEX
  8
0
 10
134.898306414
 20
109.7
 30
0.0
  0
VERTEX
  8
0
 10
140.094458837
 20
106.7
 30
0.0
  0
VERTEX
  8
0
 10
134.898306414
 20
103.7
 30
0.0
  0
SEQEND
  8
0
  0
POLYLINE
  8
0
 62
0
 70
0
 66
1
 10
0.0
 20
0.0
 30
0.0
  0
VERTEX
  8
0
 10
134.898306414
 20
65.4
 30
0.0
  0
VERTEX
  8
0
 10
134.898306414
 20
70.9
 30
0.0
  0
VERTEX
  8
0
 10
140.094458837
 20
67.9
 30
0.0
  0
VERTEX
  8
0
 10
134.898306414
 20
64.9
 30
0.0
  0
SEQEND
  8
0
  0
POLYLINE
  8
0
 62
0
 70
0
 66
1
 10
0.0
 20
0.0
 30
0.0
  0
VERTEX
  8
0
 10
143.961812807
 20
113.9
 30
0.0
  0
VERTEX
  8
0
 10
143.961812807
 20
119.4
 30
0.0
  0
VERTEX
  8
0
 10
138.765660385
 20
116.4
 30
0.0
  0
VERTEX
  8
0
 10
143.961812807
 20
113.4
 30
0.0
  0
SEQEND
  8
0
  0
POLYLINE
  8
0
 62
0
 70
0
 66
1
 10
0.0
 20
0.0
 30
0.0
  0
VERTEX
  8
0
 10
146.76467547
 20
65.4
 30
0.0
  0
VERTEX
  8
0
 10
146.76467547
 20
70.9
 30
0.0
  0
VERTEX
  8
0
 10
151.960827893
 20
67.9
 30
0.0
  0
VERTEX
  8
0
 10
146.76467547
 20
64.9
 30
0.0
  0
SEQEND
  8
0
  0
POLYLINE
  8
0
 62
0
 70
0
 66
1
 10
0.0
 20
0.0
 30
0.0
  0
VERTEX
  8
0
 10
167.694550918
 20
55.7
 30
0.0
  0
VERTEX
  8
0
 10
167.694550918
 20
61.2
 30
0.0
  0
VERTEX
  8
0
 10
162.498398496
 20
58.2
 30
0.0
  0
VERTEX
  8
0
 10
167.694550918
 20
55.2
 30
0.0
  0
SEQEND
  8
0
  0
POLYLINE
  8
0
 62
0
 70
0
 66
1
 10
0.0
 20
0.0
 30
0.0
  0
VERTEX
  8
0
 10
146.76467547
 20
123.6
 30
0.0
  0
VERTEX
  8
0
 10
146.76467547
 20
129.1
 30
0.0
  0
VERTEX
  8
0
 10
151.960827893
 20
126.1
 30
0.0
  0
VERTEX
  8
0
 10
146.76467547
 20
123.1
 30
0.0
  0
SEQEND
  8
0
  0
POLYLINE
  8
0
 62
0
 70
0
 66
1
 10
0.0
 20
0.0
 30
0.0
  0
VERTEX
  8
0
 10
155.828181863
 20
113.9
 30
0.0
  0
VERTEX
  8
0
 10
155.828181863
 20
119.4
 30
0.0
  0
VERTEX
  8
0
 10
150.63202944
 20
116.4
 30
0.0
  0
VERTEX
  8
0
 10
155.828181863
 20
113.4
 30
0.0
  0
SEQEND
  8
0
  0
POLYLINE
  8
0
 62
0
 70
0
 66
1
 10
0.0
 20
0.0
 30
0.0
  0
VERTEX
  8
0
 10
155.828181863
 20
55.7
 30
0.0
  0
VERTEX
  8
0
 10
155.828181863
 20
61.2
 30
0.0
  0
VERTEX
  8
0
 10
150.63202944
 20
58.2
 30
0.0
  0
VERTEX
  8
0
 10
155.828181863
 20
55.2
 30
0.0
  0
SEQEND
  8
0
  0
POLYLINE
  8
0
 62
0
 70
0
 66
1
 10
0.0
 20
0.0
 30
0.0
  0
VERTEX
  8
0
 10
146.76467547
 20
104.2
 30
0.0
  0
VERTEX
  8
0
 10
146.76467547
 20
109.7
 30
0.0
  0
VERTEX
  8
0
 10
151.960827893
 20
106.7
 30
0.0
  0
VERTEX
  8
0
 10
146.76467547
 20
103.7
 30
0.0
  0
SEQEND
  8
0
  0
POLYLINE
  8
0
 62
0
 70
0
 66
1
 10
0.0
 20
0.0
 30
0.0
  0
VERTEX
  8
0
 10
155.828181863
 20
75.1
 30
0.0
  0
VERTEX
  8
0
 10
155.828181863
 20
80.6
 30
0.0
  0
VERTEX
  8
0
 10
150.63202944
 20
77.6
 30
0.0
  0
VERTEX
  8
0
 10
155.828181863
 20
74.6
 30
0.0
  0
SEQEND
  8
0
  0
POLYLINE
  8
0
 62
0
 70
0
 66
1
 10
0.0
 20
0.0
 30
0.0
  0
VERTEX
  8
0
 10
155.828181863
 20
133.3
 30
0.0
  0
VERTEX
  8
0
 10
155.828181863
 20
138.8
 30
0.0
  0
VERTEX
  8
0
 10
150.63202944
 20
135.8
 30
0.0
  0
VERTEX
  8
0
 10
155.828181863
 20
132.8
 30
0.0
  0
SEQEND
  8
0
  0
POLYLINE
  8
0
 62
0
 70
0
 66
1
 10
0.0
 20
0.0
 30
0.0
  0
VERTEX
  8
0
 10
158.631044525
 20
7.2
 30
0.0
  0
VERTEX
  8
0
 10
158.631044525
 20
12.7
 30
0.0
  0
VERTEX
  8
0
 10
163.827196948
 20
9.7
 30
0.0
  0
VERTEX
  8
0
 10
158.631044525
 20
6.7
 30
0.0
  0
SEQEND
  8
0
  0
POLYLINE
  8
0
 62
0
 70
0
 66
1
 10
0.0
 20
0.0
 30
0.0
  0
VERTEX
  8
0
 10
158.631044525
 20
26.6
 30
0.0
  0
VERTEX
  8
0
 10
158.631044525
 20
32.1
 30
0.0
  0
VERTEX
  8
0
 10
163.827196948
 20
29.1
 30
0.0
  0
VERTEX
  8
0
 10
158.631044525
 20
26.1
 30
0.0
  0
SEQEND
  8
0
  0
POLYLINE
  8
0
 62
0
 70
0
 66
1
 10
0.0
 20
0.0
 30
0.0
  0
VERTEX
  8
0
 10
167.694550918
 20
36.3
 30
0.0
  0
VERTEX
  8
0
 10
167.694550918
 20
41.8
 30
0.0
  0
VERTEX
  8
0
 10
162.498398496
 20
38.8
 30
0.0
  0
VERTEX
  8
0
 10
167.694550918
 20
35.8
 30
0.0
  0
SEQEND
  8
0
  0
POLYLINE
  8
0
 62
0
 70
0
 66
1
 10
0.0
 20
0.0
 30
0.0
  0
VERTEX
  8
0
 10
155.828181863
 20
36.3
 30
0.0
  0
VERTEX
  8
0
 10
155.828181863
 20
41.8
 30
0.0
  0
VERTEX
  8
0
 10
150.63202944
 20
38.8
 30
0.0
  0
VERTEX
  8
0
 10
155.828181863
 20
35.8
 30
0.0
  0
SEQEND
  8
0
  0
POLYLINE
  8
0
 62
0
 70
0
 66
1
 10
0.0
 20
0.0
 30
0.0
  0
VERTEX
  8
0
 10
158.631044525
 20
46.0
 30
0.0
  0
VERTEX
  8
0
 10
158.631044525
 20
51.5
 30
0.0
  0
VERTEX
  8
0
 10
163.827196948
 20
48.5
 30
0.0
  0
VERTEX
  8
0
 10
158.631044525
 20
45.5
 30
0.0
  0
SEQEND
  8
0
  0
POLYLINE
  8
0
 62
0
 70
0
 66
1
 10
0.0
 20
0.0
 30
0.0
  0
VERTEX
  8
0
 10
155.828181863
 20
152.7
 30
0.0
  0
VERTEX
  8
0
 10
155.828181863
 20
158.2
 30
0.0
  0
VERTEX
  8
0
 10
150.63202944
 20
155.2
 30
0.0
  0
VERTEX
  8
0
 10
155.828181863
 20
152.2
 30
0.0
  0
SEQEND
  8
0
  0
POLYLINE
  8
0
 62
0
 70
0
 66
1
 10
0.0
 20
0.0
 30
0.0
  0
VERTEX
  8
0
 10
146.76467547
 20
84.8
 30
0.0
  0
VERTEX
  8
0
 10
146.76467547
 20
90.3
 30
0.0
  0
VERTEX
  8
0
 10
151.960827893
 20
87.3
 30
0.0
  0
VERTEX
  8
0
 10
146.76467547
 20
84.3
 30
0.0
  0
SEQEND
  8
0
  0
POLYLINE
  8
0
 62
0
 70
0
 66
1
 10
0.0
 20
0.0
 30
0.0
  0
VERTEX
  8
0
 10
170.497413581
 20
7.2
 30
0.0
  0
VERTEX
  8
0
 10
170.497413581
 20
12.7
 30
0.0
  0
VERTEX
  8
0
 10
175.693566004
 20
9.7
 30
0.0
  0
VERTEX
  8
0
 10
170.497413581
 20
6.7
 30
0.0
  0
SEQEND
  8
0
  0
POLYLINE
  8
0
 62
0
 70
0
 66
1
 10
0.0
 20
0.0
 30
0.0
  0
VERTEX
  8
0
 10
146.76467547
 20
143.0
 30
0.0
  0
VERTEX
  8
0
 10
146.76467547
 20
148.5
 30
0.0
  0
VERTEX
  8
0
 10
151.960827893
 20
145.5
 30
0.0
  0
VERTEX
  8
0
 10
146.76467547
 20
142.5
 30
0.0
  0
SEQEND
  8
0
  0
POLYLINE
  8
0
 62
0
 70
0
 66
1
 10
0.0
 20
0.0
 30
0.0
  0
VERTEX
  8
0
 10
167.694550918
 20
94.5
 30
0.0
  0
VERTEX
  8
0
 10
167.694550918
 20
100.0
 30
0.0
  0
VERTEX
  8
0
 10
162.498398496
 20
97.0
 30
0.0
  0
VERTEX
  8
0
 10
167.694550918
 20
94.0
 30
0.0
  0
SEQEND
  8
0
  0
POLYLINE
  8
0
 62
0
 70
0
 66
1
 10
0.0
 20
0.0
 30
0.0
  0
VERTEX
  8
0
 10
160.196428666
 20
3.11710828847
 30
0.0
  0
VERTEX
  8
0
 10
161.06245407
 20
3.63710828847
 30
0.0
  0
VERTEX
  8
0
 10
160.196428666
 20
3.13710828847
 30
0.0
  0
VERTEX
  8
0
 10
154.262797722
 20
6.56289171153
 30
0.0
  0
VERTEX
  8
0
 10
153.396772318
 20
6.06289171153
 30
0.0
  0
VERTEX
  8
0
 10
154.262797722
 20
6.58289171153
 30
0.0
  0
VERTEX
  8
0
 10
154.262797722
 20
12.8171082885
 30
0.0
  0
VERTEX
  8
0
 10
153.396772318
 20
13.3371082885
 30
0.0
  0
VERTEX
  8
0
 10
154.262797722
 20
12.8371082885
 30
0.0
  0
VERTEX
  8
0
 10
160.196428666
 20
16.2628917115
 30
0.0
  0
VERTEX
  8
0
 10
161.06245407
 20
15.7628917115
 30
0.0
  0
VERTEX
  8
0
 10
160.196428666
 20
16.2828917115
 30
0.0
  0
VERTEX
  8
0
 10
160.196428666
 20
22.5171082885
 30
0.0
  0
VERTEX
  8
0
 10
161.06245407
 20
23.0371082885
 30
0.0
  0
VERTEX
  8
0
 10
160.196428666
 20
22.5371082885
 30
0.0
  0
VERTEX
  8
0
 10
154.262797722
 20
25.9628917115
 30
0.0
  0
VERTEX
  8
0
 10
153.396772318
 20
25.4628917115
 30
0.0
  0
VERTEX
  8
0
 10
154.262797722
 20
25.9828917115
 30
0.0
  0
VERTEX
  8
0
 10
154.262797722
 20
32.2171082885
 30
0.0
  0
VERTEX
  8
0
 10
153.396772318
 20
32.7371082885
 30
0.0
  0
VERTEX
  8
0
 10
154.262797722
 20
32.2371082885
 30
0.0
  0
VERTEX
  8
0
 10
160.196428666
 20
35.6628917115
 30
0.0
  0
VERTEX
  8
0
 10
161.06245407
 20
35.1628917115
 30
0.0
  0
VERTEX
  8
0
 10
160.196428666
 20
35.6828917115
 30
0.0
  0
VERTEX
  8
0
 10
160.196428666
 20
41.9171082885
 30
0.0
  0
VERTEX
  8
0
 10
161.06245407
 20
42.4371082885
 30
0.0
  0
VERTEX
  8
0
 10
160.196428666
 20
41.9371082885
 30
0.0
  0
VERTEX
  8
0
 10
154.262797722
 20
45.3628917115
 30
0.0
  0
VERTEX
  8
0
 10
153.396772318
 20
44.8628917115
 30
0.0
  0
VERTEX
  8
0
 10
154.262797722
 20
45.3828917115
 30
0.0
  0
VERTEX
  8
0
 10
154.262797722
 20
51.6171082885
 30
0.0
  0
VERTEX
  8
0
 10
153.396772318
 20
52.1371082885
 30
0.0
  0
VERTEX
  8
0
 10
154.262797722
 20
51.6371082885
 30
0.0
  0
VERTEX
  8
0
 10
160.196428666
 20
55.0628917115
 30
0.0
  0
VERTEX
  8
0
 10
161.06245407
 20
54.5628917115
 30
0.0
  0
VERTEX
  8
0
 10
160.196428666
 20
55.0828917115
 30
0.0
  0
VERTEX
  8
0
 10
160.196428666
 20
61.3171082885
 30
0.0
  0
VERTEX
  8
0
 10
161.06245407
 20
61.8371082885
 30
0.0
  0
VERTEX
  8
0
 10
160.196428666
 20
61.3371082885
 30
0.0
  0
VERTEX
  8
0
 10
154.262797722
 20
64.7628917115
 30
0.0
  0
VERTEX
  8
0
 10
153.396772318
 20
64.2628917115
 30
0.0
  0
VERTEX
  8
0
 10
154.262797722
 20
64.7828917115
 30
0.0
  0
VERTEX
  8
0
 10
154.262797722
 20
71.0171082885
 30
0.0
  0
VERTEX
  8
0
 10
153.396772318
 20
71.5371082885
 30
0.0
  0
VERTEX
  8
0
 10
154.262797722
 20
71.0371082885
 30
0.0
  0
VERTEX
  8
0
 10
160.196428666
 20
74.4628917115
 30
0.0
  0
VERTEX
  8
0
 10
161.06245407
 20
73.9628917115
 30
0.0
  0
VERTEX
  8
0
 10
160.196428666
 20
74.4828917115
 30
0.0
  0
VERTEX
  8
0
 10
160.196428666
 20
80.7171082885
 30
0.0
  0
VERTEX
  8
0
 10
161.06245407
 20
81.2371082885
 30
0.0
  0
VERTEX
  8
0
 10
160.196428666
 20
80.7371082885
 30
0.0
  0
VERTEX
  8
0
 10
154.262797722
 20
84.1628917115
 30
0.0
  0
VERTEX
  8
0
 10
153.396772318
 20
83.6628917115
 30
0.0
  0
VERTEX
  8
0
 10
154.262797722
 20
84.1828917115
 30
0.0
  0
VERTEX
  8
0
 10
154.262797722
 20
90.4171082885
 30
0.0
  0
VERTEX
  8
0
 10
153.396772318
 20
90.9371082885
 30
0.0
  0
VERTEX
  8
0
 10
154.262797722
 20
90.4371082885
 30
0.0
  0
VERTEX
  8
0
 10
160.196428666
 20
93.8628917115
 30
0.0
  0
VERTEX
  8
0
 10
161.06245407
 20
93.3628917115
 30
0.0
  0
VERTEX
  8
0
 10
160.196428666
 20
93.8828917115
 30
0.0
  0
VERTEX
  8
0
 10
160.196428666
 20
100.117108288
 30
0.0
  0
VERTEX
  8
0
 10
161.06245407
 20
100.637108288
 30
0.0
  0
VERTEX
  8
0
 10
160.196428666
 20
100.137108288
 30
0.0
  0
VERTEX
  8
0
 10
154.262797722
 20
103.562891712
 30
0.0
  0
VERTEX
  8
0
 10
153.396772318
 20
103.062891712
 30
0.0
  0
VERTEX
  8
0
 10
154.262797722
 20
103.582891712
 30
0.0
  0
VERTEX
  8
0
 10
154.262797722
 20
109.817108288
 30
0.0
  0
VERTEX
  8
0
 10
153.396772318
 20
110.337108288
 30
0.0
  0
VERTEX
  8
0
 10
154.262797722
 20
109.837108288
 30
0.0
  0
VERTEX
  8
0
 10
160.196428666
 20
113.262891712
 30
0.0
  0
VERTEX
  8
0
 10
161.06245407
 20
112.762891712
 30
0.0
  0
VERTEX
  8
0
 10
160.196428666
 20
113.282891712
 30
0.0
  0
VERTEX
  8
0
 10
160.196428666
 20
119.517108288
 30
0.0
  0
VERTEX
  8
0
 10
161.06245407
 20
120.037108288
 30
0.0
  0
VERTEX
  8
0
 10
160.196428666
 20
119.537108288
 30
0.0
  0
VERTEX
  8
0
 10
154.262797722
 20
122.962891712
 30
0.0
  0
VERTEX
  8
0
 10
153.396772318
 20
122.462891712
 30
0.0
  0
VERTEX
  8
0
 10
154.262797722
 20
122.982891712
 30
0.0
  0
VERTEX
  8
0
 10
154.262797722
 20
129.217108288
 30
0.0
  0
VERTEX
  8
0
 10
153.396772318
 20
129.737108288
 30
0.0
  0
VERTEX
  8
0
 10
154.262797722
 20
129.237108288
 30
0.0
  0
VERTEX
  8
0
 10
160.196428666
 20
132.662891712
 30
0.0
  0
VERTEX
  8
0
 10
161.06245407
 20
132.162891712
 30
0.0
  0
VERTEX
  8
0
 10
160.196428666
 20
132.682891712
 30
0.0
  0
VERTEX
  8
0
 10
160.196428666
 20
138.917108288
 30
0.0
  0
VERTEX
  8
0
 10
161.06245407
 20
139.437108288
 30
0.0
  0
VERTEX
  8
0
 10
160.196428666
 20
138.937108288
 30
0.0
  0
VERTEX
  8
0
 10
154.262797722
 20
142.362891712
 30
0.0
  0
VERTEX
  8
0
 10
153.396772318
 20
141.862891712
 30
0.0
  0
VERTEX
  8
0
 10
154.262797722
 20
142.382891712
 30
0.0
  0
VERTEX
  8
0
 10
154.262797722
 20
148.617108288
 30
0.0
  0
VERTEX
  8
0
 10
153.396772318
 20
149.137108288
 30
0.0
  0
VERTEX
  8
0
 10
154.262797722
 20
148.637108288
 30
0.0
  0
VERTEX
  8
0
 10
160.196428666
 20
152.062891712
 30
0.0
  0
VERTEX
  8
0
 10
161.06245407
 20
151.562891712
 30
0.0
  0
VERTEX
  8
0
 10
160.196428666
 20
152.082891712
 30
0.0
  0
VERTEX
  8
0
 10
160.196428666
 20
158.317108288
 30
0.0
  0
VERTEX
  8
0
 10
161.06245407
 20
158.837108288
 30
0.0
  0
VERTEX
  8
0
 10
160.196428666
 20
158.337108288
 30
0.0
  0
VERTEX
  8
0
 10
154.262797722
 20
161.762891712
 30
0.0
  0
VERTEX
  8
0
 10
153.396772318
 20
161.262891712
 30
0.0
  0
VERTEX
  8
0
 10
154.262797722
 20
161.782891712
 30
0.0
  0
VERTEX
  8
0
 10
145.602543684
 20
176.762891712
 30
0.0
  0
VERTEX
  8
0
 10
139.66891274
 20
173.337108288
 30
0.0
  0
VERTEX
  8
0
 10
146.59711597
 20
161.337108288
 30
0.0
  0
SEQEND
  8
0
  0
POLYLINE
  8
0
 62
0
 70
0
 66
1
 10
0.0
 20
0.0
 30
0.0
  0
VERTEX
  8
0
 10
146.76467547
 20
46.0
 30
0.0
  0
VERTEX
  8
0
 10
146.76467547
 20
51.5
 30
0.0
  0
VERTEX
  8
0
 10
151.960827893
 20
48.5
 30
0.0
  0
VERTEX
  8
0
 10
146.76467547
 20
45.5
 30
0.0
  0
SEQEND
  8
0
  0
POLYLINE
  8
0
 62
0
 70
0
 66
1
 10
0.0
 20
0.0
 30
0.0
  0
VERTEX
  8
0
 10
170.497413581
 20
65.4
 30
0.0
  0
VERTEX
  8
0
 10
170.497413581
 20
70.9
 30
0.0
  0
VERTEX
  8
0
 10
175.693566004
 20
67.9
 30
0.0
  0
VERTEX
  8
0
 10
170.497413581
 20
64.9
 30
0.0
  0
SEQEND
  8
0
  0
POLYLINE
  8
0
 62
0
 70
0
 66
1
 10
0.0
 20
0.0
 30
0.0
  0
VERTEX
  8
0
 10
155.828181863
 20
94.5
 30
0.0
  0
VERTEX
  8
0
 10
155.828181863
 20
100.0
 30
0.0
  0
VERTEX
  8
0
 10
150.63202944
 20
97.0
 30
0.0
  0
VERTEX
  8
0
 10
155.828181863
 20
94.0
 30
0.0
  0
SEQEND
  8
0
  0
POLYLINE
  8
0
 62
0
 70
0
 66
1
 10
0.0
 20
0.0
 30
0.0
  0
VERTEX
  8
0
 10
167.694550918
 20
16.9
 30
0.0
  0
VERTEX
  8
0
 10
167.694550918
 20
22.4
 30
0.0
  0
VERTEX
  8
0
 10
162.498398496
 20
19.4
 30
0.0
  0
VERTEX
  8
0
 10
167.694550918
 20
16.4
 30
0.0
  0
SEQEND
  8
0
  0
POLYLINE
  8
0
 62
0
 70
0
 66
1
 10
0.0
 20
0.0
 30
0.0
  0
VERTEX
  8
0
 10
170.497413581
 20
104.2
 30
0.0
  0
VERTEX
  8
0
 10
170.497413581
 20
109.7
 30
0.0
  0
VERTEX
  8
0
 10
175.693566004
 20
106.7
 30
0.0
  0
VERTEX
  8
0
 10
170.497413581
 20
103.7
 30
0.0
  0
SEQEND
  8
0
  0
POLYLINE
  8
0
 62
0
 70
0
 66
1
 10
0.0
 20
0.0
 30
0.0
  0
VERTEX
  8
0
 10
170.497413581
 20
123.6
 30
0.0
  0
VERTEX
  8
0
 10
170.497413581
 20
129.1
 30
0.0
  0
VERTEX
  8
0
 10
175.693566004
 20
126.1
 30
0.0
  0
VERTEX
  8
0
 10
170.497413581
 20
123.1
 30
0.0
  0
SEQEND
  8
0
  0
POLYLINE
  8
0
 62
0
 70
0
 66
1
 10
0.0
 20
0.0
 30
0.0
  0
VERTEX
  8
0
 10
179.560919974
 20
133.3
 30
0.0
  0
VERTEX
  8
0
 10
179.560919974
 20
138.8
 30
0.0
  0
VERTEX
  8
0
 10
174.364767551
 20
135.8
 30
0.0
  0
VERTEX
  8
0
 10
179.560919974
 20
132.8
 30
0.0
  0
SEQEND
  8
0
  0
POLYLINE
  8
0
 62
0
 70
0
 66
1
 10
0.0
 20
0.0
 30
0.0
  0
VERTEX
  8
0
 10
170.497413581
 20
143.0
 30
0.0
  0
VERTEX
  8
0
 10
170.497413581
 20
148.5
 30
0.0
  0
VERTEX
  8
0
 10
175.693566004
 20
145.5
 30
0.0
  0
VERTEX
  8
0
 10
170.497413581
 20
142.5
 30
0.0
  0
SEQEND
  8
0
  0
POLYLINE
  8
0
 62
0
 70
0
 66
1
 10
0.0
 20
0.0
 30
0.0
  0
VERTEX
  8
0
 10
167.694550918
 20
152.7
 30
0.0
  0
VERTEX
  8
0
 10
167.694550918
 20
158.2
 30
0.0
  0
VERTEX
  8
0
 10
162.498398496
 20
155.2
 30
0.0
  0
VERTEX
  8
0
 10
167.694550918
 20
152.2
 30
0.0
  0
SEQEND
  8
0
  0
POLYLINE
  8
0
 62
0
 70
0
 66
1
 10
0.0
 20
0.0
 30
0.0
  0
VERTEX
  8
0
 10
172.062797722
 20
3.11710828847
 30
0.0
  0
VERTEX
  8
0
 10
172.928823126
 20
3.63710828847
 30
0.0
  0
VERTEX
  8
0
 10
172.062797722
 20
3.13710828847
 30
0.0
  0
VERTEX
  8
0
 10
166.129166777
 20
6.56289171153
 30
0.0
  0
VERTEX
  8
0
 10
165.263141374
 20
6.06289171153
 30
0.0
  0
VERTEX
  8
0
 10
166.129166777
 20
6.58289171153
 30
0.0
  0
VERTEX
  8
0
 10
166.129166777
 20
12.8171082885
 30
0.0
  0
VERTEX
  8
0
 10
165.263141374
 20
13.3371082885
 30
0.0
  0
VERTEX
  8
0
 10
166.129166777
 20
12.8371082885
 30
0.0
  0
VERTEX
  8
0
 10
172.062797722
 20
16.2628917115
 30
0.0
  0
VERTEX
  8
0
 10
172.928823126
 20
15.7628917115
 30
0.0
  0
VERTEX
  8
0
 10
172.062797722
 20
16.2828917115
 30
0.0
  0
VERTEX
  8
0
 10
172.062797722
 20
22.5171082885
 30
0.0
  0
VERTEX
  8
0
 10
172.928823126
 20
23.0371082885
 30
0.0
  0
VERTEX
  8
0
 10
172.062797722
 20
22.5371082885
 30
0.0
  0
VERTEX
  8
0
 10
166.129166777
 20
25.9628917115
 30
0.0
  0
VERTEX
  8
0
 10
165.263141374
 20
25.4628917115
 30
0.0
  0
VERTEX
  8
0
 10
166.129166777
 20
25.9828917115
 30
0.0
  0
VERTEX
  8
0
 10
166.129166777
 20
32.2171082885
 30
0.0
  0
VERTEX
  8
0
 10
165.263141374
 20
32.7371082885
 30
0.0
  0
VERTEX
  8
0
 10
166.129166777
 20
32.2371082885
 30
0.0
  0
VERTEX
  8
0
 10
172.062797722
 20
35.6628917115
 30
0.0
  0
VERTEX
  8
0
 10
172.928823126
 20
35.1628917115
 30
0.0
  0
VERTEX
  8
0
 10
172.062797722
 20
35.6828917115
 30
0.0
  0
VERTEX
  8
0
 10
172.062797722
 20
41.9171082885
 30
0.0
  0
VERTEX
  8
0
 10
172.928823126
 20
42.4371082885
 30
0.0
  0
VERTEX
  8
0
 10
172.062797722
 20
41.9371082885
 30
0.0
  0
VERTEX
  8
0
 10
166.129166777
 20
45.3628917115
 30
0.0
  0
VERTEX
  8
0
 10
165.263141374
 20
44.8628917115
 30
0.0
  0
VERTEX
  8
0
 10
166.129166777
 20
45.3828917115
 30
0.0
  0
VERTEX
  8
0
 10
166.129166777
 20
51.6171082885
 30
0.0
  0
VERTEX
  8
0
 10
165.263141374
 20
52.1371082885
 30
0.0
  0
VERTEX
  8
0
 10
166.129166777
 20
51.6371082885
 30
0.0
  0
VERTEX
  8
0
 10
172.062797722
 20
55.0628917115
 30
0.0
  0
VERTEX
  8
0
 10
172.928823126
 20
54.5628917115
 30
0.0
  0
VERTEX
  8
0
 10
172.062797722
 20
55.0828917115
 30
0.0
  0
VERTEX
  8
0
 10
172.062797722
 20
61.3171082885
 30
0.0
  0
VERTEX
  8
0
 10
172.928823126
 20
61.8371082885
 30
0.0
  0
VERTEX
  8
0
 10
172.062797722
 20
61.3371082885
 30
0.0
  0
VERTEX
  8
0
 10
166.129166777
 20
64.7628917115
 30
0.0
  0
VERTEX
  8
0
 10
165.263141374
 20
64.2628917115
 30
0.0
  0
VERTEX
  8
0
 10
166.129166777
 20
64.7828917115
 30
0.0
  0
VERTEX
  8
0
 10
166.129166777
 20
71.0171082885
 30
0.0
  0
VERTEX
  8
0
 10
165.263141374
 20
71.5371082885
 30
0.0
  0
VERTEX
  8
0
 10
166.129166777
 20
71.0371082885
 30
0.0
  0
VERTEX
  8
0
 10
172.062797722
 20
74.4628917115
 30
0.0
  0
VERTEX
  8
0
 10
172.928823126
 20
73.9628917115
 30
0.0
  0
VERTEX
  8
0
 10
172.062797722
 20
74.4828917115
 30
0.0
  0
VERTEX
  8
0
 10
172.062797722
 20
80.7171082885
 30
0.0
  0
VERTEX
  8
0
 10
172.928823126
 20
81.2371082885
 30
0.0
  0
VERTEX
  8
0
 10
172.062797722
 20
80.7371082885
 30
0.0
  0
VERTEX
  8
0
 10
166.129166777
 20
84.1628917115
 30
0.0
  0
VERTEX
  8
0
 10
165.263141374
 20
83.6628917115
 30
0.0
  0
VERTEX
  8
0
 10
166.129166777
 20
84.1828917115
 30
0.0
  0
VERTEX
  8
0
 10
166.129166777
 20
90.4171082885
 30
0.0
  0
VERTEX
  8
0
 10
165.263141374
 20
90.9371082885
 30
0.0
  0
VERTEX
  8
0
 10
166.129166777
 20
90.4371082885
 30
0.0
  0
VERTEX
  8
0
 10
172.062797722
 20
93.8628917115
 30
0.0
  0
VERTEX
  8
0
 10
172.928823126
 20
93.3628917115
 30
0.0
  0
VERTEX
  8
0
 10
172.062797722
 20
93.8828917115
 30
0.0
  0
VERTEX
  8
0
 10
172.062797722
 20
100.117108288
 30
0.0
  0
VERTEX
  8
0
 10
172.928823126
 20
100.637108288
 30
0.0
  0
VERTEX
  8
0
 10
172.062797722
 20
100.137108288
 30
0.0
  0
VERTEX
  8
0
 10
166.129166777
 20
103.562891712
 30
0.0
  0
VERTEX
  8
0
 10
165.263141374
 20
103.062891712
 30
0.0
  0
VERTEX
  8
0
 10
166.129166777
 20
103.582891712
 30
0.0
  0
VERTEX
  8
0
 10
166.129166777
 20
109.817108288
 30
0.0
  0
VERTEX
  8
0
 10
165.263141374
 20
110.337108288
 30
0.0
  0
VERTEX
  8
0
 10
166.129166777
 20
109.837108288
 30
0.0
  0
VERTEX
  8
0
 10
172.062797722
 20
113.262891712
 30
0.0
  0
VERTEX
  8
0
 10
172.928823126
 20
112.762891712
 30
0.0
  0
VERTEX
  8
0
 10
172.062797722
 20
113.282891712
 30
0.0
  0
VERTEX
  8
0
 10
172.062797722
 20
119.517108288
 30
0.0
  0
VERTEX
  8
0
 10
172.928823126
 20
120.037108288
 30
0.0
  0
VERTEX
  8
0
 10
172.062797722
 20
119.537108288
 30
0.0
  0
VERTEX
  8
0
 10
166.129166777
 20
122.962891712
 30
0.0
  0
VERTEX
  8
0
 10
165.263141374
 20
122.462891712
 30
0.0
  0
VERTEX
  8
0
 10
166.129166777
 20
122.982891712
 30
0.0
  0
VERTEX
  8
0
 10
166.129166777
 20
129.217108288
 30
0.0
  0
VERTEX
  8
0
 10
165.263141374
 20
129.737108288
 30
0.0
  0
VERTEX
  8
0
 10
166.129166777
 20
129.237108288
 30
0.0
  0
VERTEX
  8
0
 10
172.062797722
 20
132.662891712
 30
0.0
  0
VERTEX
  8
0
 10
172.928823126
 20
132.162891712
 30
0.0
  0
VERTEX
  8
0
 10
172.062797722
 20
132.682891712
 30
0.0
  0
VERTEX
  8
0
 10
172.062797722
 20
138.917108288
 30
0.0
  0
VERTEX
  8
0
 10
172.928823126
 20
139.437108288
 30
0.0
  0
VERTEX
  8
0
 10
172.062797722
 20
138.937108288
 30
0.0
  0
VERTEX
  8
0
 10
166.129166777
 20
142.362891712
 30
0.0
  0
VERTEX
  8
0
 10
165.263141374
 20
141.862891712
 30
0.0
  0
VERTEX
  8
0
 10
166.129166777
 20
142.382891712
 30
0.0
  0
VERTEX
  8
0
 10
166.129166777
 20
148.617108288
 30
0.0
  0
VERTEX
  8
0
 10
165.263141374
 20
149.137108288
 30
0.0
  0
VERTEX
  8
0
 10
166.129166777
 20
148.637108288
 30
0.0
  0
VERTEX
  8
0
 10
172.062797722
 20
152.062891712
 30
0.0
  0
VERTEX
  8
0
 10
172.928823126
 20
151.562891712
 30
0.0
  0
VERTEX
  8
0
 10
172.062797722
 20
152.082891712
 30
0.0
  0
VERTEX
  8
0
 10
172.062797722
 20
158.317108288
 30
0.0
  0
VERTEX
  8
0
 10
172.928823126
 20
158.837108288
 30
0.0
  0
VERTEX
  8
0
 10
172.062797722
 20
158.337108288
 30
0.0
  0
VERTEX
  8
0
 10
166.129166777
 20
161.762891712
 30
0.0
  0
VERTEX
  8
0
 10
165.263141374
 20
161.262891712
 30
0.0
  0
VERTEX
  8
0
 10
166.129166777
 20
161.782891712
 30
0.0
  0
VERTEX
  8
0
 10
157.46891274
 20
176.762891712
 30
0.0
  0
VERTEX
  8
0
 10
151.535281795
 20
173.337108288
 30
0.0
  0
VERTEX
  8
0
 10
158.463485025
 20
161.337108288
 30
0.0
  0
SEQEND
  8
0
  0
POLYLINE
  8
0
 62
0
 70
0
 66
1
 10
0.0
 20
0.0
 30
0.0
  0
VERTEX
  8
0
 10
158.631044525
 20
123.6
 30
0.0
  0
VERTEX
  8
0
 10
158.631044525
 20
129.1
 30
0.0
  0
VERTEX
  8
0
 10
163.827196948
 20
126.1
 30
0.0
  0
VERTEX
  8
0
 10
158.631044525
 20
123.1
 30
0.0
  0
SEQEND
  8
0
  0
POLYLINE
  8
0
 62
0
 70
0
 66
1
 10
0.0
 20
0.0
 30
0.0
  0
VERTEX
  8
0
 10
167.694550918
 20
133.3
 30
0.0
  0
VERTEX
  8
0
 10
167.694550918
 20
138.8
 30
0.0
  0
VERTEX
  8
0
 10
162.498398496
 20
135.8
 30
0.0
  0
VERTEX
  8
0
 10
167.694550918
 20
132.8
 30
0.0
  0
SEQEND
  8
0
  0
POLYLINE
  8
0
 62
0
 70
0
 66
1
 10
0.0
 20
0.0
 30
0.0
  0
VERTEX
  8
0
 10
167.694550918
 20
113.9
 30
0.0
  0
VERTEX
  8
0
 10
167.694550918
 20
119.4
 30
0.0
  0
VERTEX
  8
0
 10
162.498398496
 20
116.4
 30
0.0
  0
VERTEX
  8
0
 10
167.694550918
 20
113.4
 30
0.0
  0
SEQEND
  8
0
  0
POLYLINE
  8
0
 62
0
 70
0
 66
1
 10
0.0
 20
0.0
 30
0.0
  0
VERTEX
  8
0
 10
158.631044525
 20
65.4
 30
0.0
  0
VERTEX
  8
0
 10
158.631044525
 20
70.9
 30
0.0
  0
VERTEX
  8
0
 10
163.827196948
 20
67.9
 30
0.0
  0
VERTEX
  8
0
 10
158.631044525
 20
64.9
 30
0.0
  0
SEQEND
  8
0
  0
POLYLINE
  8
0
 62
0
 70
0
 66
1
 10
0.0
 20
0.0
 30
0.0
  0
VERTEX
  8
0
 10
167.694550918
 20
75.1
 30
0.0
  0
VERTEX
  8
0
 10
167.694550918
 20
80.6
 30
0.0
  0
VERTEX
  8
0
 10
162.498398496
 20
77.6
 30
0.0
  0
VERTEX
  8
0
 10
167.694550918
 20
74.6
 30
0.0
  0
SEQEND
  8
0
  0
POLYLINE
  8
0
 62
0
 70
0
 66
1
 10
0.0
 20
0.0
 30
0.0
  0
VERTEX
  8
0
 10
158.631044525
 20
143.0
 30
0.0
  0
VERTEX
  8
0
 10
158.631044525
 20
148.5
 30
0.0
  0
VERTEX
  8
0
 10
163.827196948
 20
145.5
 30
0.0
  0
VERTEX
  8
0
 10
158.631044525
 20
142.5
 30
0.0
  0
SEQEND
  8
0
  0
POLYLINE
  8
0
 62
0
 70
0
 66
1
 10
0.0
 20
0.0
 30
0.0
  0
VERTEX
  8
0
 10
158.631044525
 20
84.8
 30
0.0
  0
VERTEX
  8
0
 10
158.631044525
 20
90.3
 30
0.0
  0
VERTEX
  8
0
 10
163.827196948
 20
87.3
 30
0.0
  0
VERTEX
  8
0
 10
158.631044525
 20
84.3
 30
0.0
  0
SEQEND
  8
0
  0
POLYLINE
  8
0
 62
0
 70
0
 66
1
 10
0.0
 20
0.0
 30
0.0
  0
VERTEX
  8
0
 10
158.631044525
 20
104.2
 30
0.0
  0
VERTEX
  8
0
 10
158.631044525
 20
109.7
 30
0.0
  0
VERTEX
  8
0
 10
163.827196948
 20
106.7
 30
0.0
  0
VERTEX
  8
0
 10
158.631044525
 20
103.7
 30
0.0
  0
SEQEND
  8
0
  0
POLYLINE
  8
0
 62
0
 70
0
 66
1
 10
0.0
 20
0.0
 30
0.0
  0
VERTEX
  8
0
 10
179.560919974
 20
16.9
 30
0.0
  0
VERTEX
  8
0
 10
179.560919974
 20
22.4
 30
0.0
  0
VERTEX
  8
0
 10
174.364767551
 20
19.4
 30
0.0
  0
VERTEX
  8
0
 10
179.560919974
 20
16.4
 30
0.0
  0
SEQEND
  8
0
  0
POLYLINE
  8
0
 62
0
 70
0
 66
1
 10
0.0
 20
0.0
 30
0.0
  0
VERTEX
  8
0
 10
170.497413581
 20
26.6
 30
0.0
  0
VERTEX
  8
0
 10
170.497413581
 20
32.1
 30
0.0
  0
VERTEX
  8
0
 10
175.693566004
 20
29.1
 30
0.0
  0
VERTEX
  8
0
 10
170.497413581
 20
26.1
 30
0.0
  0
SEQEND
  8
0
  0
POLYLINE
  8
0
 62
0
 70
0
 66
1
 10
0.0
 20
0.0
 30
0.0
  0
VERTEX
  8
0
 10
179.560919974
 20
36.3
 30
0.0
  0
VERTEX
  8
0
 10
179.560919974
 20
41.8
 30
0.0
  0
VERTEX
  8
0
 10
174.364767551
 20
38.8
 30
0.0
  0
VERTEX
  8
0
 10
179.560919974
 20
35.8
 30
0.0
  0
SEQEND
  8
0
  0
POLYLINE
  8
0
 62
0
 70
0
 66
1
 10
0.0
 20
0.0
 30
0.0
  0
VERTEX
  8
0
 10
170.497413581
 20
46.0
 30
0.0
  0
VERTEX
  8
0
 10
170.497413581
 20
51.5
 30
0.0
  0
VERTEX
  8
0
 10
175.693566004
 20
48.5
 30
0.0
  0
VERTEX
  8
0
 10
170.497413581
 20
45.5
 30
0.0
  0
SEQEND
  8
0
  0
POLYLINE
  8
0
 62
0
 70
0
 66
1
 10
0.0
 20
0.0
 30
0.0
  0
VERTEX
  8
0
 10
179.560919974
 20
55.7
 30
0.0
  0
VERTEX
  8
0
 10
179.560919974
 20
61.2
 30
0.0
  0
VERTEX
  8
0
 10
174.364767551
 20
58.2
 30
0.0
  0
VERTEX
  8
0
 10
179.560919974
 20
55.2
 30
0.0
  0
SEQEND
  8
0
  0
POLYLINE
  8
0
 62
0
 70
0
 66
1
 10
0.0
 20
0.0
 30
0.0
  0
VERTEX
  8
0
 10
179.560919974
 20
75.1
 30
0.0
  0
VERTEX
  8
0
 10
179.560919974
 20
80.6
 30
0.0
  0
VERTEX
  8
0
 10
174.364767551
 20
77.6
 30
0.0
  0
VERTEX
  8
0
 10
179.560919974
 20
74.6
 30
0.0
  0
SEQEND
  8
0
  0
POLYLINE
  8
0
 62
0
 70
0
 66
1
 10
0.0
 20
0.0
 30
0.0
  0
VERTEX
  8
0
 10
170.497413581
 20
84.8
 30
0.0
  0
VERTEX
  8
0
 10
170.497413581
 20
90.3
 30
0.0
  0
VERTEX
  8
0
 10
175.693566004
 20
87.3
 30
0.0
  0
VERTEX
  8
0
 10
170.497413581
 20
84.3
 30
0.0
  0
SEQEND
  8
0
  0
POLYLINE
  8
0
 62
0
 70
0
 66
1
 10
0.0
 20
0.0
 30
0.0
  0
VERTEX
  8
0
 10
179.560919974
 20
94.5
 30
0.0
  0
VERTEX
  8
0
 10
179.560919974
 20
100.0
 30
0.0
  0
VERTEX
  8
0
 10
174.364767551
 20
97.0
 30
0.0
  0
VERTEX
  8
0
 10
179.560919974
 20
94.0
 30
0.0
  0
SEQEND
  8
0
  0
POLYLINE
  8
0
 62
0
 70
0
 66
1
 10
0.0
 20
0.0
 30
0.0
  0
VERTEX
  8
0
 10
179.560919974
 20
113.9
 30
0.0
  0
VERTEX
  8
0
 10
179.560919974
 20
119.4
 30
0.0
  0
VERTEX
  8
0
 10
174.364767551
 20
116.4
 30
0.0
  0
VERTEX
  8
0
 10
179.560919974
 20
113.4
 30
0.0
  0
SEQEND
  8
0
  0
ENDSEC
  0
EOF
