  0
SECTION
  2
HEADER
  9
$ACADVER
  1
AC1009
  9
$INSBASE
 10
0.0
 20
0.0
 30
0.0
  9
$EXTMIN
 10
0.0
 20
0.0
 30
0.0
  9
$EXTMAX
 10
0.0
 20
0.0
 30
0.0
  0
ENDSEC
  0
SECTION
  2
TABLES
  0
TABLE
  2
VPORT
 70
0
  0
ENDTAB
  0
TABLE
  2
LTYPE
 70
1
  0
LTYPE
  2
CONTINUOUS
 70
0
  3
Solid line
 72
65
 73
0
 40
0.0
  0
ENDTAB
  0
TABLE
  2
LAYER
 70
1
  0
LAYER
  2
0
 70
64
 62
7
  6
continuous
  0
ENDTAB
  0
TABLE
  2
STYLE
 70
1
  0
STYLE
  2
STANDARD
 70
0
 40
0
 41
1.0
 50
0.0
 71
0
 42
1
 3
ARIAL.TTF
 4

  0
ENDTAB
  0
TABLE
  2
VIEW
 70
0
  0
ENDTAB
  0
ENDSEC
  0
SECTION
  2
BLOCKS
  0
ENDSEC
  0
SECTION
  2
ENTITIES
  0
POLYLINE
  8
0
 62
0
 70
0
 66
1
 10
0.0
 20
0.0
 30
0.0
  0
VERTEX
  8
0
 10
5.86696427781
 20
3.14635329744
 30
0.0
  0
VERTEX
  8
0
 10
6.73298968159
 20
3.65635329744
 30
0.0
  0
VERTEX
  8
0
 10
5.86696427781
 20
3.15635329744
 30
0.0
  0
VERTEX
  8
0
 10
0.0
 20
6.54364670256
 30
0.0
  0
VERTEX
  8
0
 10
-0.866025403784
 20
6.04364670256
 30
0.0
  0
VERTEX
  8
0
 10
0.0
 20
6.55364670256
 30
0.0
  0
VERTEX
  8
0
 10
0.0
 20
12.8463532974
 30
0.0
  0
VERTEX
  8
0
 10
-0.866025403784
 20
13.3563532974
 30
0.0
  0
VERTEX
  8
0
 10
0.0
 20
12.8563532974
 30
0.0
  0
VERTEX
  8
0
 10
5.86696427781
 20
16.2436467026
 30
0.0
  0
VERTEX
  8
0
 10
6.73298968159
 20
15.7436467026
 30
0.0
  0
VERTEX
  8
0
 10
5.86696427781
 20
16.2536467026
 30
0.0
  0
VERTEX
  8
0
 10
5.86696427781
 20
22.5463532974
 30
0.0
  0
VERTEX
  8
0
 10
6.73298968159
 20
23.0563532974
 30
0.0
  0
VERTEX
  8
0
 10
5.86696427781
 20
22.5563532974
 30
0.0
  0
VERTEX
  8
0
 10
0.0
 20
25.9436467026
 30
0.0
  0
VERTEX
  8
0
 10
-0.866025403784
 20
25.4436467026
 30
0.0
  0
VERTEX
  8
0
 10
0.0
 20
25.9536467026
 30
0.0
  0
VERTEX
  8
0
 10
0.0
 20
32.2463532974
 30
0.0
  0
VERTEX
  8
0
 10
-0.866025403784
 20
32.7563532974
 30
0.0
  0
VERTEX
  8
0
 10
0.0
 20
32.2563532974
 30
0.0
  0
VERTEX
  8
0
 10
5.86696427781
 20
35.6436467026
 30
0.0
  0
VERTEX
  8
0
 10
6.73298968159
 20
35.1436467026
 30
0.0
  0
VERTEX
  8
0
 10
5.86696427781
 20
35.6536467026
 30
0.0
  0
VERTEX
  8
0
 10
5.86696427781
 20
41.9463532974
 30
0.0
  0
VERTEX
  8
0
 10
6.73298968159
 20
42.4563532974
 30
0.0
  0
VERTEX
  8
0
 10
5.86696427781
 20
41.9563532974
 30
0.0
  0
VERTEX
  8
0
 10
0.0
 20
45.3436467026
 30
0.0
  0
VERTEX
  8
0
 10
-0.866025403784
 20
44.8436467026
 30
0.0
  0
VERTEX
  8
0
 10
0.0
 20
45.3536467026
 30
0.0
  0
VERTEX
  8
0
 10
0.0
 20
51.6463532974
 30
0.0
  0
VERTEX
  8
0
 10
-0.866025403784
 20
52.1563532974
 30
0.0
  0
VERTEX
  8
0
 10
0.0
 20
51.6563532974
 30
0.0
  0
VERTEX
  8
0
 10
5.86696427781
 20
55.0436467026
 30
0.0
  0
VERTEX
  8
0
 10
6.73298968159
 20
54.5436467026
 30
0.0
  0
VERTEX
  8
0
 10
5.86696427781
 20
55.0536467026
 30
0.0
  0
VERTEX
  8
0
 10
5.86696427781
 20
61.3463532974
 30
0.0
  0
VERTEX
  8
0
 10
6.73298968159
 20
61.8563532974
 30
0.0
  0
VERTEX
  8
0
 10
5.86696427781
 20
61.3563532974
 30
0.0
  0
VERTEX
  8
0
 10
0.0
 20
64.7436467026
 30
0.0
  0
VERTEX
  8
0
 10
-0.866025403784
 20
64.2436467026
 30
0.0
  0
VERTEX
  8
0
 10
0.0
 20
64.7536467026
 30
0.0
  0
VERTEX
  8
0
 10
0.0
 20
71.0463532974
 30
0.0
  0
VERTEX
  8
0
 10
-0.866025403784
 20
71.5563532974
 30
0.0
  0
VERTEX
  8
0
 10
0.0
 20
71.0563532974
 30
0.0
  0
VERTEX
  8
0
 10
5.86696427781
 20
74.4436467026
 30
0.0
  0
VERTEX
  8
0
 10
6.73298968159
 20
73.9436467026
 30
0.0
  0
VERTEX
  8
0
 10
5.86696427781
 20
74.4536467026
 30
0.0
  0
VERTEX
  8
0
 10
5.86696427781
 20
80.7463532974
 30
0.0
  0
VERTEX
  8
0
 10
6.73298968159
 20
81.2563532974
 30
0.0
  0
VERTEX
  8
0
 10
5.86696427781
 20
80.7563532974
 30
0.0
  0
VERTEX
  8
0
 10
0.0
 20
84.1436467026
 30
0.0
  0
VERTEX
  8
0
 10
-0.866025403784
 20
83.6436467026
 30
0.0
  0
VERTEX
  8
0
 10
0.0
 20
84.1536467026
 30
0.0
  0
VERTEX
  8
0
 10
0.0
 20
90.4463532974
 30
0.0
  0
VERTEX
  8
0
 10
-0.866025403784
 20
90.9563532974
 30
0.0
  0
VERTEX
  8
0
 10
0.0
 20
90.4563532974
 30
0.0
  0
VERTEX
  8
0
 10
5.86696427781
 20
93.8436467026
 30
0.0
  0
VERTEX
  8
0
 10
6.73298968159
 20
93.3436467026
 30
0.0
  0
VERTEX
  8
0
 10
5.86696427781
 20
93.8536467026
 30
0.0
  0
VERTEX
  8
0
 10
5.86696427781
 20
100.146353297
 30
0.0
  0
VERTEX
  8
0
 10
6.73298968159
 20
100.656353297
 30
0.0
  0
VERTEX
  8
0
 10
5.86696427781
 20
100.156353297
 30
0.0
  0
VERTEX
  8
0
 10
0.0
 20
103.543646703
 30
0.0
  0
VERTEX
  8
0
 10
-0.866025403784
 20
103.043646703
 30
0.0
  0
VERTEX
  8
0
 10
0.0
 20
103.553646703
 30
0.0
  0
VERTEX
  8
0
 10
0.0
 20
109.846353297
 30
0.0
  0
VERTEX
  8
0
 10
-0.866025403784
 20
110.356353297
 30
0.0
  0
VERTEX
  8
0
 10
0.0
 20
109.856353297
 30
0.0
  0
VERTEX
  8
0
 10
5.86696427781
 20
113.243646703
 30
0.0
  0
VERTEX
  8
0
 10
6.73298968159
 20
112.743646703
 30
0.0
  0
VERTEX
  8
0
 10
5.86696427781
 20
113.253646703
 30
0.0
  0
VERTEX
  8
0
 10
5.86696427781
 20
119.546353297
 30
0.0
  0
VERTEX
  8
0
 10
6.73298968159
 20
120.056353297
 30
0.0
  0
VERTEX
  8
0
 10
5.86696427781
 20
119.556353297
 30
0.0
  0
VERTEX
  8
0
 10
0.0
 20
122.943646703
 30
0.0
  0
VERTEX
  8
0
 10
-0.866025403784
 20
122.443646703
 30
0.0
  0
VERTEX
  8
0
 10
0.0
 20
122.953646703
 30
0.0
  0
VERTEX
  8
0
 10
0.0
 20
129.246353297
 30
0.0
  0
VERTEX
  8
0
 10
-0.866025403784
 20
129.756353297
 30
0.0
  0
VERTEX
  8
0
 10
0.0
 20
129.256353297
 30
0.0
  0
VERTEX
  8
0
 10
5.86696427781
 20
132.643646703
 30
0.0
  0
VERTEX
  8
0
 10
6.73298968159
 20
132.143646703
 30
0.0
  0
VERTEX
  8
0
 10
5.86696427781
 20
132.653646703
 30
0.0
  0
VERTEX
  8
0
 10
5.86696427781
 20
138.946353297
 30
0.0
  0
VERTEX
  8
0
 10
6.73298968159
 20
139.456353297
 30
0.0
  0
VERTEX
  8
0
 10
5.86696427781
 20
138.956353297
 30
0.0
  0
VERTEX
  8
0
 10
0.0
 20
142.343646703
 30
0.0
  0
VERTEX
  8
0
 10
-0.866025403784
 20
141.843646703
 30
0.0
  0
VERTEX
  8
0
 10
0.0
 20
142.353646703
 30
0.0
  0
VERTEX
  8
0
 10
0.0
 20
148.656353297
 30
0.0
  0
VERTEX
  8
0
 10
5.86696427781
 20
152.043646703
 30
0.0
  0
VERTEX
  8
0
 10
6.73298968159
 20
151.543646703
 30
0.0
  0
VERTEX
  8
0
 10
5.86696427781
 20
152.053646703
 30
0.0
  0
VERTEX
  8
0
 10
5.86696427781
 20
155.19
 30
0.0
  0
VERTEX
  8
0
 10
5.43395157591
 20
155.2
 30
0.0
  0
VERTEX
  8
0
 10
5.86696427781
 20
155.2
 30
0.0
  0
VERTEX
  8
0
 10
8.13560077372
 20
155.2
 30
0.0
  0
VERTEX
  8
0
 10
13.3317531964
 20
152.2
 30
0.0
  0
VERTEX
  8
0
 10
13.3317531964
 20
155.19
 30
0.0
  0
VERTEX
  8
0
 10
13.7647658983
 20
155.2
 30
0.0
  0
VERTEX
  8
0
 10
13.3317531964
 20
155.2
 30
0.0
  0
VERTEX
  8
0
 10
13.3317531964
 20
180.2
 30
0.0
  0
VERTEX
  8
0
 10
17.6
 20
180.2
 30
0.0
  0
VERTEX
  8
0
 10
17.6
 20
157.7
 30
0.0
  0
SEQEND
  8
0
  0
POLYLINE
  8
0
 62
0
 70
0
 66
1
 10
0.0
 20
0.0
 30
0.0
  0
VERTEX
  8
0
 10
48.530860363
 20
74.61
 30
0.0
  0
VERTEX
  8
0
 10
48.530860363
 20
80.6
 30
0.0
  0
VERTEX
  8
0
 10
43.3347079403
 20
77.6
 30
0.0
  0
VERTEX
  8
0
 10
48.530860363
 20
74.6
 30
0.0
  0
SEQEND
  8
0
  0
POLYLINE
  8
0
 62
0
 70
0
 66
1
 10
0.0
 20
0.0
 30
0.0
  0
VERTEX
  8
0
 10
41.0660714444
 20
3.14635329744
 30
0.0
  0
VERTEX
  8
0
 10
41.9320968482
 20
3.65635329744
 30
0.0
  0
VERTEX
  8
0
 10
41.0660714444
 20
3.15635329744
 30
0.0
  0
VERTEX
  8
0
 10
35.1991071666
 20
6.54364670256
 30
0.0
  0
VERTEX
  8
0
 10
34.3330817628
 20
6.04364670256
 30
0.0
  0
VERTEX
  8
0
 10
35.1991071666
 20
6.55364670256
 30
0.0
  0
VERTEX
  8
0
 10
35.1991071666
 20
12.8463532974
 30
0.0
  0
VERTEX
  8
0
 10
34.3330817628
 20
13.3563532974
 30
0.0
  0
VERTEX
  8
0
 10
35.1991071666
 20
12.8563532974
 30
0.0
  0
VERTEX
  8
0
 10
41.0660714444
 20
16.2436467026
 30
0.0
  0
VERTEX
  8
0
 10
41.9320968482
 20
15.7436467026
 30
0.0
  0
VERTEX
  8
0
 10
41.0660714444
 20
16.2536467026
 30
0.0
  0
VERTEX
  8
0
 10
41.0660714444
 20
22.5463532974
 30
0.0
  0
VERTEX
  8
0
 10
41.9320968482
 20
23.0563532974
 30
0.0
  0
VERTEX
  8
0
 10
41.0660714444
 20
22.5563532974
 30
0.0
  0
VERTEX
  8
0
 10
35.1991071666
 20
25.9436467026
 30
0.0
  0
VERTEX
  8
0
 10
34.3330817628
 20
25.4436467026
 30
0.0
  0
VERTEX
  8
0
 10
35.1991071666
 20
25.9536467026
 30
0.0
  0
VERTEX
  8
0
 10
35.1991071666
 20
32.2463532974
 30
0.0
  0
VERTEX
  8
0
 10
34.3330817628
 20
32.7563532974
 30
0.0
  0
VERTEX
  8
0
 10
35.1991071666
 20
32.2563532974
 30
0.0
  0
VERTEX
  8
0
 10
41.0660714444
 20
35.6436467026
 30
0.0
  0
VERTEX
  8
0
 10
41.9320968482
 20
35.1436467026
 30
0.0
  0
VERTEX
  8
0
 10
41.0660714444
 20
35.6536467026
 30
0.0
  0
VERTEX
  8
0
 10
41.0660714444
 20
41.9463532974
 30
0.0
  0
VERTEX
  8
0
 10
41.9320968482
 20
42.4563532974
 30
0.0
  0
VERTEX
  8
0
 10
41.0660714444
 20
41.9563532974
 30
0.0
  0
VERTEX
  8
0
 10
35.1991071666
 20
45.3436467026
 30
0.0
  0
VERTEX
  8
0
 10
34.3330817628
 20
44.8436467026
 30
0.0
  0
VERTEX
  8
0
 10
35.1991071666
 20
45.3536467026
 30
0.0
  0
VERTEX
  8
0
 10
35.1991071666
 20
51.6463532974
 30
0.0
  0
VERTEX
  8
0
 10
34.3330817628
 20
52.1563532974
 30
0.0
  0
VERTEX
  8
0
 10
35.1991071666
 20
51.6563532974
 30
0.0
  0
VERTEX
  8
0
 10
41.0660714444
 20
55.0436467026
 30
0.0
  0
VERTEX
  8
0
 10
41.9320968482
 20
54.5436467026
 30
0.0
  0
VERTEX
  8
0
 10
41.0660714444
 20
55.0536467026
 30
0.0
  0
VERTEX
  8
0
 10
41.0660714444
 20
61.3463532974
 30
0.0
  0
VERTEX
  8
0
 10
41.9320968482
 20
61.8563532974
 30
0.0
  0
VERTEX
  8
0
 10
41.0660714444
 20
61.3563532974
 30
0.0
  0
VERTEX
  8
0
 10
35.1991071666
 20
64.7436467026
 30
0.0
  0
VERTEX
  8
0
 10
34.3330817628
 20
64.2436467026
 30
0.0
  0
VERTEX
  8
0
 10
35.1991071666
 20
64.7536467026
 30
0.0
  0
VERTEX
  8
0
 10
35.1991071666
 20
71.0463532974
 30
0.0
  0
VERTEX
  8
0
 10
34.3330817628
 20
71.5563532974
 30
0.0
  0
VERTEX
  8
0
 10
35.1991071666
 20
71.0563532974
 30
0.0
  0
VERTEX
  8
0
 10
41.0660714444
 20
74.4436467026
 30
0.0
  0
VERTEX
  8
0
 10
41.9320968482
 20
73.9436467026
 30
0.0
  0
VERTEX
  8
0
 10
41.0660714444
 20
74.4536467026
 30
0.0
  0
VERTEX
  8
0
 10
41.0660714444
 20
80.7463532974
 30
0.0
  0
VERTEX
  8
0
 10
41.9320968482
 20
81.2563532974
 30
0.0
  0
VERTEX
  8
0
 10
41.0660714444
 20
80.7563532974
 30
0.0
  0
VERTEX
  8
0
 10
35.1991071666
 20
84.1436467026
 30
0.0
  0
VERTEX
  8
0
 10
34.3330817628
 20
83.6436467026
 30
0.0
  0
VERTEX
  8
0
 10
35.1991071666
 20
84.1536467026
 30
0.0
  0
VERTEX
  8
0
 10
35.1991071666
 20
90.4463532974
 30
0.0
  0
VERTEX
  8
0
 10
34.3330817628
 20
90.9563532974
 30
0.0
  0
VERTEX
  8
0
 10
35.1991071666
 20
90.4563532974
 30
0.0
  0
VERTEX
  8
0
 10
41.0660714444
 20
93.8436467026
 30
0.0
  0
VERTEX
  8
0
 10
41.9320968482
 20
93.3436467026
 30
0.0
  0
VERTEX
  8
0
 10
41.0660714444
 20
93.8536467026
 30
0.0
  0
VERTEX
  8
0
 10
41.0660714444
 20
100.146353297
 30
0.0
  0
VERTEX
  8
0
 10
41.9320968482
 20
100.656353297
 30
0.0
  0
VERTEX
  8
0
 10
41.0660714444
 20
100.156353297
 30
0.0
  0
VERTEX
  8
0
 10
35.1991071666
 20
103.543646703
 30
0.0
  0
VERTEX
  8
0
 10
34.3330817628
 20
103.043646703
 30
0.0
  0
VERTEX
  8
0
 10
35.1991071666
 20
103.553646703
 30
0.0
  0
VERTEX
  8
0
 10
35.1991071666
 20
109.846353297
 30
0.0
  0
VERTEX
  8
0
 10
34.3330817628
 20
110.356353297
 30
0.0
  0
VERTEX
  8
0
 10
35.1991071666
 20
109.856353297
 30
0.0
  0
VERTEX
  8
0
 10
41.0660714444
 20
113.243646703
 30
0.0
  0
VERTEX
  8
0
 10
41.9320968482
 20
112.743646703
 30
0.0
  0
VERTEX
  8
0
 10
41.0660714444
 20
113.253646703
 30
0.0
  0
VERTEX
  8
0
 10
41.0660714444
 20
119.546353297
 30
0.0
  0
VERTEX
  8
0
 10
41.9320968482
 20
120.056353297
 30
0.0
  0
VERTEX
  8
0
 10
41.0660714444
 20
119.556353297
 30
0.0
  0
VERTEX
  8
0
 10
35.1991071666
 20
122.943646703
 30
0.0
  0
VERTEX
  8
0
 10
34.3330817628
 20
122.443646703
 30
0.0
  0
VERTEX
  8
0
 10
35.1991071666
 20
122.953646703
 30
0.0
  0
VERTEX
  8
0
 10
35.1991071666
 20
129.246353297
 30
0.0
  0
VERTEX
  8
0
 10
34.3330817628
 20
129.756353297
 30
0.0
  0
VERTEX
  8
0
 10
35.1991071666
 20
129.256353297
 30
0.0
  0
VERTEX
  8
0
 10
41.0660714444
 20
132.643646703
 30
0.0
  0
VERTEX
  8
0
 10
41.9320968482
 20
132.143646703
 30
0.0
  0
VERTEX
  8
0
 10
41.0660714444
 20
132.653646703
 30
0.0
  0
VERTEX
  8
0
 10
41.0660714444
 20
138.946353297
 30
0.0
  0
VERTEX
  8
0
 10
41.9320968482
 20
139.456353297
 30
0.0
  0
VERTEX
  8
0
 10
41.0660714444
 20
138.956353297
 30
0.0
  0
VERTEX
  8
0
 10
35.1991071666
 20
142.343646703
 30
0.0
  0
VERTEX
  8
0
 10
34.3330817628
 20
141.843646703
 30
0.0
  0
VERTEX
  8
0
 10
35.1991071666
 20
142.353646703
 30
0.0
  0
VERTEX
  8
0
 10
35.1991071666
 20
148.656353297
 30
0.0
  0
VERTEX
  8
0
 10
41.0660714444
 20
152.043646703
 30
0.0
  0
VERTEX
  8
0
 10
41.9320968482
 20
151.543646703
 30
0.0
  0
VERTEX
  8
0
 10
41.0660714444
 20
152.053646703
 30
0.0
  0
VERTEX
  8
0
 10
41.0660714444
 20
155.19
 30
0.0
  0
VERTEX
  8
0
 10
40.6330587425
 20
155.2
 30
0.0
  0
VERTEX
  8
0
 10
41.0660714444
 20
155.2
 30
0.0
  0
VERTEX
  8
0
 10
43.3347079403
 20
155.2
 30
0.0
  0
VERTEX
  8
0
 10
48.530860363
 20
152.2
 30
0.0
  0
VERTEX
  8
0
 10
48.530860363
 20
155.19
 30
0.0
  0
VERTEX
  8
0
 10
48.9638730649
 20
155.2
 30
0.0
  0
VERTEX
  8
0
 10
48.530860363
 20
155.2
 30
0.0
  0
VERTEX
  8
0
 10
48.530860363
 20
180.2
 30
0.0
  0
VERTEX
  8
0
 10
52.7991071666
 20
180.2
 30
0.0
  0
VERTEX
  8
0
 10
52.7991071666
 20
157.7
 30
0.0
  0
SEQEND
  8
0
  0
POLYLINE
  8
0
 62
0
 70
0
 66
1
 10
0.0
 20
0.0
 30
0.0
  0
VERTEX
  8
0
 10
48.530860363
 20
132.81
 30
0.0
  0
VERTEX
  8
0
 10
48.530860363
 20
138.8
 30
0.0
  0
VERTEX
  8
0
 10
43.3347079403
 20
135.8
 30
0.0
  0
VERTEX
  8
0
 10
48.530860363
 20
132.8
 30
0.0
  0
SEQEND
  8
0
  0
POLYLINE
  8
0
 62
0
 70
0
 66
1
 10
0.0
 20
0.0
 30
0.0
  0
VERTEX
  8
0
 10
39.4673539702
 20
26.11
 30
0.0
  0
VERTEX
  8
0
 10
39.4673539702
 20
32.1
 30
0.0
  0
VERTEX
  8
0
 10
44.6635063929
 20
29.1
 30
0.0
  0
VERTEX
  8
0
 10
39.4673539702
 20
26.1
 30
0.0
  0
SEQEND
  8
0
  0
POLYLINE
  8
0
 62
0
 70
0
 66
1
 10
0.0
 20
0.0
 30
0.0
  0
VERTEX
  8
0
 10
39.4673539702
 20
103.71
 30
0.0
  0
VERTEX
  8
0
 10
39.4673539702
 20
109.7
 30
0.0
  0
VERTEX
  8
0
 10
44.6635063929
 20
106.7
 30
0.0
  0
VERTEX
  8
0
 10
39.4673539702
 20
103.7
 30
0.0
  0
SEQEND
  8
0
  0
POLYLINE
  8
0
 62
0
 70
0
 66
1
 10
0.0
 20
0.0
 30
0.0
  0
VERTEX
  8
0
 10
51.2003896923
 20
45.51
 30
0.0
  0
VERTEX
  8
0
 10
51.2003896923
 20
51.5
 30
0.0
  0
VERTEX
  8
0
 10
56.3965421151
 20
48.5
 30
0.0
  0
VERTEX
  8
0
 10
51.2003896923
 20
45.5
 30
0.0
  0
SEQEND
  8
0
  0
POLYLINE
  8
0
 62
0
 70
0
 66
1
 10
0.0
 20
0.0
 30
0.0
  0
VERTEX
  8
0
 10
51.2003896923
 20
6.71
 30
0.0
  0
VERTEX
  8
0
 10
51.2003896923
 20
12.7
 30
0.0
  0
VERTEX
  8
0
 10
56.3965421151
 20
9.7
 30
0.0
  0
VERTEX
  8
0
 10
51.2003896923
 20
6.7
 30
0.0
  0
SEQEND
  8
0
  0
POLYLINE
  8
0
 62
0
 70
0
 66
1
 10
0.0
 20
0.0
 30
0.0
  0
VERTEX
  8
0
 10
60.2638960852
 20
94.01
 30
0.0
  0
VERTEX
  8
0
 10
60.2638960852
 20
100.0
 30
0.0
  0
VERTEX
  8
0
 10
55.0677436625
 20
97.0
 30
0.0
  0
VERTEX
  8
0
 10
60.2638960852
 20
94.0
 30
0.0
  0
SEQEND
  8
0
  0
POLYLINE
  8
0
 62
0
 70
0
 66
1
 10
0.0
 20
0.0
 30
0.0
  0
VERTEX
  8
0
 10
36.7978246408
 20
132.81
 30
0.0
  0
VERTEX
  8
0
 10
36.7978246408
 20
138.8
 30
0.0
  0
VERTEX
  8
0
 10
31.6016722181
 20
135.8
 30
0.0
  0
VERTEX
  8
0
 10
36.7978246408
 20
132.8
 30
0.0
  0
SEQEND
  8
0
  0
POLYLINE
  8
0
 62
0
 70
0
 66
1
 10
0.0
 20
0.0
 30
0.0
  0
VERTEX
  8
0
 10
48.530860363
 20
16.41
 30
0.0
  0
VERTEX
  8
0
 10
48.530860363
 20
22.4
 30
0.0
  0
VERTEX
  8
0
 10
43.3347079403
 20
19.4
 30
0.0
  0
VERTEX
  8
0
 10
48.530860363
 20
16.4
 30
0.0
  0
SEQEND
  8
0
  0
POLYLINE
  8
0
 62
0
 70
0
 66
1
 10
0.0
 20
0.0
 30
0.0
  0
VERTEX
  8
0
 10
48.530860363
 20
94.01
 30
0.0
  0
VERTEX
  8
0
 10
48.530860363
 20
100.0
 30
0.0
  0
VERTEX
  8
0
 10
43.3347079403
 20
97.0
 30
0.0
  0
VERTEX
  8
0
 10
48.530860363
 20
94.0
 30
0.0
  0
SEQEND
  8
0
  0
POLYLINE
  8
0
 62
0
 70
0
 66
1
 10
0.0
 20
0.0
 30
0.0
  0
VERTEX
  8
0
 10
27.734318248
 20
142.51
 30
0.0
  0
VERTEX
  8
0
 10
27.734318248
 20
148.5
 30
0.0
  0
VERTEX
  8
0
 10
32.9304706707
 20
145.5
 30
0.0
  0
VERTEX
  8
0
 10
27.734318248
 20
142.5
 30
0.0
  0
SEQEND
  8
0
  0
POLYLINE
  8
0
 62
0
 70
0
 66
1
 10
0.0
 20
0.0
 30
0.0
  0
VERTEX
  8
0
 10
48.530860363
 20
113.41
 30
0.0
  0
VERTEX
  8
0
 10
48.530860363
 20
119.4
 30
0.0
  0
VERTEX
  8
0
 10
43.3347079403
 20
116.4
 30
0.0
  0
VERTEX
  8
0
 10
48.530860363
 20
113.4
 30
0.0
  0
SEQEND
  8
0
  0
POLYLINE
  8
0
 62
0
 70
0
 66
1
 10
0.0
 20
0.0
 30
0.0
  0
VERTEX
  8
0
 10
39.4673539702
 20
45.51
 30
0.0
  0
VERTEX
  8
0
 10
39.4673539702
 20
51.5
 30
0.0
  0
VERTEX
  8
0
 10
44.6635063929
 20
48.5
 30
0.0
  0
VERTEX
  8
0
 10
39.4673539702
 20
45.5
 30
0.0
  0
SEQEND
  8
0
  0
POLYLINE
  8
0
 62
0
 70
0
 66
1
 10
0.0
 20
0.0
 30
0.0
  0
VERTEX
  8
0
 10
51.2003896923
 20
26.11
 30
0.0
  0
VERTEX
  8
0
 10
51.2003896923
 20
32.1
 30
0.0
  0
VERTEX
  8
0
 10
56.3965421151
 20
29.1
 30
0.0
  0
VERTEX
  8
0
 10
51.2003896923
 20
26.1
 30
0.0
  0
SEQEND
  8
0
  0
POLYLINE
  8
0
 62
0
 70
0
 66
1
 10
0.0
 20
0.0
 30
0.0
  0
VERTEX
  8
0
 10
52.7991071666
 20
3.14635329744
 30
0.0
  0
VERTEX
  8
0
 10
53.6651325704
 20
3.65635329744
 30
0.0
  0
VERTEX
  8
0
 10
52.7991071666
 20
3.15635329744
 30
0.0
  0
VERTEX
  8
0
 10
46.9321428888
 20
6.54364670256
 30
0.0
  0
VERTEX
  8
0
 10
46.066117485
 20
6.04364670256
 30
0.0
  0
VERTEX
  8
0
 10
46.9321428888
 20
6.55364670256
 30
0.0
  0
VERTEX
  8
0
 10
46.9321428888
 20
12.8463532974
 30
0.0
  0
VERTEX
  8
0
 10
46.066117485
 20
13.3563532974
 30
0.0
  0
VERTEX
  8
0
 10
46.9321428888
 20
12.8563532974
 30
0.0
  0
VERTEX
  8
0
 10
52.7991071666
 20
16.2436467026
 30
0.0
  0
VERTEX
  8
0
 10
53.6651325704
 20
15.7436467026
 30
0.0
  0
VERTEX
  8
0
 10
52.7991071666
 20
16.2536467026
 30
0.0
  0
VERTEX
  8
0
 10
52.7991071666
 20
22.5463532974
 30
0.0
  0
VERTEX
  8
0
 10
53.6651325704
 20
23.0563532974
 30
0.0
  0
VERTEX
  8
0
 10
52.7991071666
 20
22.5563532974
 30
0.0
  0
VERTEX
  8
0
 10
46.9321428888
 20
25.9436467026
 30
0.0
  0
VERTEX
  8
0
 10
46.066117485
 20
25.4436467026
 30
0.0
  0
VERTEX
  8
0
 10
46.9321428888
 20
25.9536467026
 30
0.0
  0
VERTEX
  8
0
 10
46.9321428888
 20
32.2463532974
 30
0.0
  0
VERTEX
  8
0
 10
46.066117485
 20
32.7563532974
 30
0.0
  0
VERTEX
  8
0
 10
46.9321428888
 20
32.2563532974
 30
0.0
  0
VERTEX
  8
0
 10
52.7991071666
 20
35.6436467026
 30
0.0
  0
VERTEX
  8
0
 10
53.6651325704
 20
35.1436467026
 30
0.0
  0
VERTEX
  8
0
 10
52.7991071666
 20
35.6536467026
 30
0.0
  0
VERTEX
  8
0
 10
52.7991071666
 20
41.9463532974
 30
0.0
  0
VERTEX
  8
0
 10
53.6651325704
 20
42.4563532974
 30
0.0
  0
VERTEX
  8
0
 10
52.7991071666
 20
41.9563532974
 30
0.0
  0
VERTEX
  8
0
 10
46.9321428888
 20
45.3436467026
 30
0.0
  0
VERTEX
  8
0
 10
46.066117485
 20
44.8436467026
 30
0.0
  0
VERTEX
  8
0
 10
46.9321428888
 20
45.3536467026
 30
0.0
  0
VERTEX
  8
0
 10
46.9321428888
 20
51.6463532974
 30
0.0
  0
VERTEX
  8
0
 10
46.066117485
 20
52.1563532974
 30
0.0
  0
VERTEX
  8
0
 10
46.9321428888
 20
51.6563532974
 30
0.0
  0
VERTEX
  8
0
 10
52.7991071666
 20
55.0436467026
 30
0.0
  0
VERTEX
  8
0
 10
53.6651325704
 20
54.5436467026
 30
0.0
  0
VERTEX
  8
0
 10
52.7991071666
 20
55.0536467026
 30
0.0
  0
VERTEX
  8
0
 10
52.7991071666
 20
61.3463532974
 30
0.0
  0
VERTEX
  8
0
 10
53.6651325704
 20
61.8563532974
 30
0.0
  0
VERTEX
  8
0
 10
52.7991071666
 20
61.3563532974
 30
0.0
  0
VERTEX
  8
0
 10
46.9321428888
 20
64.7436467026
 30
0.0
  0
VERTEX
  8
0
 10
46.066117485
 20
64.2436467026
 30
0.0
  0
VERTEX
  8
0
 10
46.9321428888
 20
64.7536467026
 30
0.0
  0
VERTEX
  8
0
 10
46.9321428888
 20
71.0463532974
 30
0.0
  0
VERTEX
  8
0
 10
46.066117485
 20
71.5563532974
 30
0.0
  0
VERTEX
  8
0
 10
46.9321428888
 20
71.0563532974
 30
0.0
  0
VERTEX
  8
0
 10
52.7991071666
 20
74.4436467026
 30
0.0
  0
VERTEX
  8
0
 10
53.6651325704
 20
73.9436467026
 30
0.0
  0
VERTEX
  8
0
 10
52.7991071666
 20
74.4536467026
 30
0.0
  0
VERTEX
  8
0
 10
52.7991071666
 20
80.7463532974
 30
0.0
  0
VERTEX
  8
0
 10
53.6651325704
 20
81.2563532974
 30
0.0
  0
VERTEX
  8
0
 10
52.7991071666
 20
80.7563532974
 30
0.0
  0
VERTEX
  8
0
 10
46.9321428888
 20
84.1436467026
 30
0.0
  0
VERTEX
  8
0
 10
46.066117485
 20
83.6436467026
 30
0.0
  0
VERTEX
  8
0
 10
46.9321428888
 20
84.1536467026
 30
0.0
  0
VERTEX
  8
0
 10
46.9321428888
 20
90.4463532974
 30
0.0
  0
VERTEX
  8
0
 10
46.066117485
 20
90.9563532974
 30
0.0
  0
VERTEX
  8
0
 10
46.9321428888
 20
90.4563532974
 30
0.0
  0
VERTEX
  8
0
 10
52.7991071666
 20
93.8436467026
 30
0.0
  0
VERTEX
  8
0
 10
53.6651325704
 20
93.3436467026
 30
0.0
  0
VERTEX
  8
0
 10
52.7991071666
 20
93.8536467026
 30
0.0
  0
VERTEX
  8
0
 10
52.7991071666
 20
100.146353297
 30
0.0
  0
VERTEX
  8
0
 10
53.6651325704
 20
100.656353297
 30
0.0
  0
VERTEX
  8
0
 10
52.7991071666
 20
100.156353297
 30
0.0
  0
VERTEX
  8
0
 10
46.9321428888
 20
103.543646703
 30
0.0
  0
VERTEX
  8
0
 10
46.066117485
 20
103.043646703
 30
0.0
  0
VERTEX
  8
0
 10
46.9321428888
 20
103.553646703
 30
0.0
  0
VERTEX
  8
0
 10
46.9321428888
 20
109.846353297
 30
0.0
  0
VERTEX
  8
0
 10
46.066117485
 20
110.356353297
 30
0.0
  0
VERTEX
  8
0
 10
46.9321428888
 20
109.856353297
 30
0.0
  0
VERTEX
  8
0
 10
52.7991071666
 20
113.243646703
 30
0.0
  0
VERTEX
  8
0
 10
53.6651325704
 20
112.743646703
 30
0.0
  0
VERTEX
  8
0
 10
52.7991071666
 20
113.253646703
 30
0.0
  0
VERTEX
  8
0
 10
52.7991071666
 20
119.546353297
 30
0.0
  0
VERTEX
  8
0
 10
53.6651325704
 20
120.056353297
 30
0.0
  0
VERTEX
  8
0
 10
52.7991071666
 20
119.556353297
 30
0.0
  0
VERTEX
  8
0
 10
46.9321428888
 20
122.943646703
 30
0.0
  0
VERTEX
  8
0
 10
46.066117485
 20
122.443646703
 30
0.0
  0
VERTEX
  8
0
 10
46.9321428888
 20
122.953646703
 30
0.0
  0
VERTEX
  8
0
 10
46.9321428888
 20
129.246353297
 30
0.0
  0
VERTEX
  8
0
 10
46.066117485
 20
129.756353297
 30
0.0
  0
VERTEX
  8
0
 10
46.9321428888
 20
129.256353297
 30
0.0
  0
VERTEX
  8
0
 10
52.7991071666
 20
132.643646703
 30
0.0
  0
VERTEX
  8
0
 10
53.6651325704
 20
132.143646703
 30
0.0
  0
VERTEX
  8
0
 10
52.7991071666
 20
132.653646703
 30
0.0
  0
VERTEX
  8
0
 10
52.7991071666
 20
138.946353297
 30
0.0
  0
VERTEX
  8
0
 10
53.6651325704
 20
139.456353297
 30
0.0
  0
VERTEX
  8
0
 10
52.7991071666
 20
138.956353297
 30
0.0
  0
VERTEX
  8
0
 10
46.9321428888
 20
142.343646703
 30
0.0
  0
VERTEX
  8
0
 10
46.066117485
 20
141.843646703
 30
0.0
  0
VERTEX
  8
0
 10
46.9321428888
 20
142.353646703
 30
0.0
  0
VERTEX
  8
0
 10
46.9321428888
 20
148.656353297
 30
0.0
  0
VERTEX
  8
0
 10
52.7991071666
 20
152.043646703
 30
0.0
  0
VERTEX
  8
0
 10
53.6651325704
 20
151.543646703
 30
0.0
  0
VERTEX
  8
0
 10
52.7991071666
 20
152.053646703
 30
0.0
  0
VERTEX
  8
0
 10
52.7991071666
 20
155.19
 30
0.0
  0
VERTEX
  8
0
 10
52.3660944647
 20
155.2
 30
0.0
  0
VERTEX
  8
0
 10
52.7991071666
 20
155.2
 30
0.0
  0
VERTEX
  8
0
 10
55.0677436625
 20
155.2
 30
0.0
  0
VERTEX
  8
0
 10
60.2638960852
 20
152.2
 30
0.0
  0
VERTEX
  8
0
 10
60.2638960852
 20
155.19
 30
0.0
  0
VERTEX
  8
0
 10
60.6969087871
 20
155.2
 30
0.0
  0
VERTEX
  8
0
 10
60.2638960852
 20
155.2
 30
0.0
  0
VERTEX
  8
0
 10
60.2638960852
 20
180.2
 30
0.0
  0
VERTEX
  8
0
 10
64.5321428888
 20
180.2
 30
0.0
  0
VERTEX
  8
0
 10
64.5321428888
 20
157.7
 30
0.0
  0
SEQEND
  8
0
  0
POLYLINE
  8
0
 62
0
 70
0
 66
1
 10
0.0
 20
0.0
 30
0.0
  0
VERTEX
  8
0
 10
39.4673539702
 20
84.31
 30
0.0
  0
VERTEX
  8
0
 10
39.4673539702
 20
90.3
 30
0.0
  0
VERTEX
  8
0
 10
44.6635063929
 20
87.3
 30
0.0
  0
VERTEX
  8
0
 10
39.4673539702
 20
84.3
 30
0.0
  0
SEQEND
  8
0
  0
POLYLINE
  8
0
 62
0
 70
0
 66
1
 10
0.0
 20
0.0
 30
0.0
  0
VERTEX
  8
0
 10
48.530860363
 20
55.21
 30
0.0
  0
VERTEX
  8
0
 10
48.530860363
 20
61.2
 30
0.0
  0
VERTEX
  8
0
 10
43.3347079403
 20
58.2
 30
0.0
  0
VERTEX
  8
0
 10
48.530860363
 20
55.2
 30
0.0
  0
SEQEND
  8
0
  0
POLYLINE
  8
0
 62
0
 70
0
 66
1
 10
0.0
 20
0.0
 30
0.0
  0
VERTEX
  8
0
 10
39.4673539702
 20
123.11
 30
0.0
  0
VERTEX
  8
0
 10
39.4673539702
 20
129.1
 30
0.0
  0
VERTEX
  8
0
 10
44.6635063929
 20
126.1
 30
0.0
  0
VERTEX
  8
0
 10
39.4673539702
 20
123.1
 30
0.0
  0
SEQEND
  8
0
  0
POLYLINE
  8
0
 62
0
 70
0
 66
1
 10
0.0
 20
0.0
 30
0.0
  0
VERTEX
  8
0
 10
39.4673539702
 20
64.91
 30
0.0
  0
VERTEX
  8
0
 10
39.4673539702
 20
70.9
 30
0.0
  0
VERTEX
  8
0
 10
44.6635063929
 20
67.9
 30
0.0
  0
VERTEX
  8
0
 10
39.4673539702
 20
64.9
 30
0.0
  0
SEQEND
  8
0
  0
POLYLINE
  8
0
 62
0
 70
0
 66
1
 10
0.0
 20
0.0
 30
0.0
  0
VERTEX
  8
0
 10
39.4673539702
 20
6.71
 30
0.0
  0
VERTEX
  8
0
 10
39.4673539702
 20
12.7
 30
0.0
  0
VERTEX
  8
0
 10
44.6635063929
 20
9.7
 30
0.0
  0
VERTEX
  8
0
 10
39.4673539702
 20
6.7
 30
0.0
  0
SEQEND
  8
0
  0
POLYLINE
  8
0
 62
0
 70
0
 66
1
 10
0.0
 20
0.0
 30
0.0
  0
VERTEX
  8
0
 10
48.530860363
 20
35.81
 30
0.0
  0
VERTEX
  8
0
 10
48.530860363
 20
41.8
 30
0.0
  0
VERTEX
  8
0
 10
43.3347079403
 20
38.8
 30
0.0
  0
VERTEX
  8
0
 10
48.530860363
 20
35.8
 30
0.0
  0
SEQEND
  8
0
  0
POLYLINE
  8
0
 62
0
 70
0
 66
1
 10
0.0
 20
0.0
 30
0.0
  0
VERTEX
  8
0
 10
60.2638960852
 20
16.41
 30
0.0
  0
VERTEX
  8
0
 10
60.2638960852
 20
22.4
 30
0.0
  0
VERTEX
  8
0
 10
55.0677436625
 20
19.4
 30
0.0
  0
VERTEX
  8
0
 10
60.2638960852
 20
16.4
 30
0.0
  0
SEQEND
  8
0
  0
POLYLINE
  8
0
 62
0
 70
0
 66
1
 10
0.0
 20
0.0
 30
0.0
  0
VERTEX
  8
0
 10
60.2638960852
 20
35.81
 30
0.0
  0
VERTEX
  8
0
 10
60.2638960852
 20
41.8
 30
0.0
  0
VERTEX
  8
0
 10
55.0677436625
 20
38.8
 30
0.0
  0
VERTEX
  8
0
 10
60.2638960852
 20
35.8
 30
0.0
  0
SEQEND
  8
0
  0
POLYLINE
  8
0
 62
0
 70
0
 66
1
 10
0.0
 20
0.0
 30
0.0
  0
VERTEX
  8
0
 10
60.2638960852
 20
55.21
 30
0.0
  0
VERTEX
  8
0
 10
60.2638960852
 20
61.2
 30
0.0
  0
VERTEX
  8
0
 10
55.0677436625
 20
58.2
 30
0.0
  0
VERTEX
  8
0
 10
60.2638960852
 20
55.2
 30
0.0
  0
SEQEND
  8
0
  0
POLYLINE
  8
0
 62
0
 70
0
 66
1
 10
0.0
 20
0.0
 30
0.0
  0
VERTEX
  8
0
 10
60.2638960852
 20
74.61
 30
0.0
  0
VERTEX
  8
0
 10
60.2638960852
 20
80.6
 30
0.0
  0
VERTEX
  8
0
 10
55.0677436625
 20
77.6
 30
0.0
  0
VERTEX
  8
0
 10
60.2638960852
 20
74.6
 30
0.0
  0
SEQEND
  8
0
  0
POLYLINE
  8
0
 62
0
 70
0
 66
1
 10
0.0
 20
0.0
 30
0.0
  0
VERTEX
  8
0
 10
39.4673539702
 20
142.51
 30
0.0
  0
VERTEX
  8
0
 10
39.4673539702
 20
148.5
 30
0.0
  0
VERTEX
  8
0
 10
44.6635063929
 20
145.5
 30
0.0
  0
VERTEX
  8
0
 10
39.4673539702
 20
142.5
 30
0.0
  0
SEQEND
  8
0
  0
POLYLINE
  8
0
 62
0
 70
0
 66
1
 10
0.0
 20
0.0
 30
0.0
  0
VERTEX
  8
0
 10
51.2003896923
 20
64.91
 30
0.0
  0
VERTEX
  8
0
 10
51.2003896923
 20
70.9
 30
0.0
  0
VERTEX
  8
0
 10
56.3965421151
 20
67.9
 30
0.0
  0
VERTEX
  8
0
 10
51.2003896923
 20
64.9
 30
0.0
  0
SEQEND
  8
0
  0
POLYLINE
  8
0
 62
0
 70
0
 66
1
 10
0.0
 20
0.0
 30
0.0
  0
VERTEX
  8
0
 10
51.2003896923
 20
84.31
 30
0.0
  0
VERTEX
  8
0
 10
51.2003896923
 20
90.3
 30
0.0
  0
VERTEX
  8
0
 10
56.3965421151
 20
87.3
 30
0.0
  0
VERTEX
  8
0
 10
51.2003896923
 20
84.3
 30
0.0
  0
SEQEND
  8
0
  0
POLYLINE
  8
0
 62
0
 70
0
 66
1
 10
0.0
 20
0.0
 30
0.0
  0
VERTEX
  8
0
 10
51.2003896923
 20
142.51
 30
0.0
  0
VERTEX
  8
0
 10
51.2003896923
 20
148.5
 30
0.0
  0
VERTEX
  8
0
 10
56.3965421151
 20
145.5
 30
0.0
  0
VERTEX
  8
0
 10
51.2003896923
 20
142.5
 30
0.0
  0
SEQEND
  8
0
  0
POLYLINE
  8
0
 62
0
 70
0
 66
1
 10
0.0
 20
0.0
 30
0.0
  0
VERTEX
  8
0
 10
71.9969318074
 20
35.81
 30
0.0
  0
VERTEX
  8
0
 10
71.9969318074
 20
41.8
 30
0.0
  0
VERTEX
  8
0
 10
66.8007793847
 20
38.8
 30
0.0
  0
VERTEX
  8
0
 10
71.9969318074
 20
35.8
 30
0.0
  0
SEQEND
  8
0
  0
POLYLINE
  8
0
 62
0
 70
0
 66
1
 10
0.0
 20
0.0
 30
0.0
  0
VERTEX
  8
0
 10
64.5321428888
 20
3.14635329744
 30
0.0
  0
VERTEX
  8
0
 10
65.3981682926
 20
3.65635329744
 30
0.0
  0
VERTEX
  8
0
 10
64.5321428888
 20
3.15635329744
 30
0.0
  0
VERTEX
  8
0
 10
58.665178611
 20
6.54364670256
 30
0.0
  0
VERTEX
  8
0
 10
57.7991532072
 20
6.04364670256
 30
0.0
  0
VERTEX
  8
0
 10
58.665178611
 20
6.55364670256
 30
0.0
  0
VERTEX
  8
0
 10
58.665178611
 20
12.8463532974
 30
0.0
  0
VERTEX
  8
0
 10
57.7991532072
 20
13.3563532974
 30
0.0
  0
VERTEX
  8
0
 10
58.665178611
 20
12.8563532974
 30
0.0
  0
VERTEX
  8
0
 10
64.5321428888
 20
16.2436467026
 30
0.0
  0
VERTEX
  8
0
 10
65.3981682926
 20
15.7436467026
 30
0.0
  0
VERTEX
  8
0
 10
64.5321428888
 20
16.2536467026
 30
0.0
  0
VERTEX
  8
0
 10
64.5321428888
 20
22.5463532974
 30
0.0
  0
VERTEX
  8
0
 10
65.3981682926
 20
23.0563532974
 30
0.0
  0
VERTEX
  8
0
 10
64.5321428888
 20
22.5563532974
 30
0.0
  0
VERTEX
  8
0
 10
58.665178611
 20
25.9436467026
 30
0.0
  0
VERTEX
  8
0
 10
57.7991532072
 20
25.4436467026
 30
0.0
  0
VERTEX
  8
0
 10
58.665178611
 20
25.9536467026
 30
0.0
  0
VERTEX
  8
0
 10
58.665178611
 20
32.2463532974
 30
0.0
  0
VERTEX
  8
0
 10
57.7991532072
 20
32.7563532974
 30
0.0
  0
VERTEX
  8
0
 10
58.665178611
 20
32.2563532974
 30
0.0
  0
VERTEX
  8
0
 10
64.5321428888
 20
35.6436467026
 30
0.0
  0
VERTEX
  8
0
 10
65.3981682926
 20
35.1436467026
 30
0.0
  0
VERTEX
  8
0
 10
64.5321428888
 20
35.6536467026
 30
0.0
  0
VERTEX
  8
0
 10
64.5321428888
 20
41.9463532974
 30
0.0
  0
VERTEX
  8
0
 10
65.3981682926
 20
42.4563532974
 30
0.0
  0
VERTEX
  8
0
 10
64.5321428888
 20
41.9563532974
 30
0.0
  0
VERTEX
  8
0
 10
58.665178611
 20
45.3436467026
 30
0.0
  0
VERTEX
  8
0
 10
57.7991532072
 20
44.8436467026
 30
0.0
  0
VERTEX
  8
0
 10
58.665178611
 20
45.3536467026
 30
0.0
  0
VERTEX
  8
0
 10
58.665178611
 20
51.6463532974
 30
0.0
  0
VERTEX
  8
0
 10
57.7991532072
 20
52.1563532974
 30
0.0
  0
VERTEX
  8
0
 10
58.665178611
 20
51.6563532974
 30
0.0
  0
VERTEX
  8
0
 10
64.5321428888
 20
55.0436467026
 30
0.0
  0
VERTEX
  8
0
 10
65.3981682926
 20
54.5436467026
 30
0.0
  0
VERTEX
  8
0
 10
64.5321428888
 20
55.0536467026
 30
0.0
  0
VERTEX
  8
0
 10
64.5321428888
 20
61.3463532974
 30
0.0
  0
VERTEX
  8
0
 10
65.3981682926
 20
61.8563532974
 30
0.0
  0
VERTEX
  8
0
 10
64.5321428888
 20
61.3563532974
 30
0.0
  0
VERTEX
  8
0
 10
58.665178611
 20
64.7436467026
 30
0.0
  0
VERTEX
  8
0
 10
57.7991532072
 20
64.2436467026
 30
0.0
  0
VERTEX
  8
0
 10
58.665178611
 20
64.7536467026
 30
0.0
  0
VERTEX
  8
0
 10
58.665178611
 20
71.0463532974
 30
0.0
  0
VERTEX
  8
0
 10
57.7991532072
 20
71.5563532974
 30
0.0
  0
VERTEX
  8
0
 10
58.665178611
 20
71.0563532974
 30
0.0
  0
VERTEX
  8
0
 10
64.5321428888
 20
74.4436467026
 30
0.0
  0
VERTEX
  8
0
 10
65.3981682926
 20
73.9436467026
 30
0.0
  0
VERTEX
  8
0
 10
64.5321428888
 20
74.4536467026
 30
0.0
  0
VERTEX
  8
0
 10
64.5321428888
 20
80.7463532974
 30
0.0
  0
VERTEX
  8
0
 10
65.3981682926
 20
81.2563532974
 30
0.0
  0
VERTEX
  8
0
 10
64.5321428888
 20
80.7563532974
 30
0.0
  0
VERTEX
  8
0
 10
58.665178611
 20
84.1436467026
 30
0.0
  0
VERTEX
  8
0
 10
57.7991532072
 20
83.6436467026
 30
0.0
  0
VERTEX
  8
0
 10
58.665178611
 20
84.1536467026
 30
0.0
  0
VERTEX
  8
0
 10
58.665178611
 20
90.4463532974
 30
0.0
  0
VERTEX
  8
0
 10
57.7991532072
 20
90.9563532974
 30
0.0
  0
VERTEX
  8
0
 10
58.665178611
 20
90.4563532974
 30
0.0
  0
VERTEX
  8
0
 10
64.5321428888
 20
93.8436467026
 30
0.0
  0
VERTEX
  8
0
 10
65.3981682926
 20
93.3436467026
 30
0.0
  0
VERTEX
  8
0
 10
64.5321428888
 20
93.8536467026
 30
0.0
  0
VERTEX
  8
0
 10
64.5321428888
 20
100.146353297
 30
0.0
  0
VERTEX
  8
0
 10
65.3981682926
 20
100.656353297
 30
0.0
  0
VERTEX
  8
0
 10
64.5321428888
 20
100.156353297
 30
0.0
  0
VERTEX
  8
0
 10
58.665178611
 20
103.543646703
 30
0.0
  0
VERTEX
  8
0
 10
57.7991532072
 20
103.043646703
 30
0.0
  0
VERTEX
  8
0
 10
58.665178611
 20
103.553646703
 30
0.0
  0
VERTEX
  8
0
 10
58.665178611
 20
109.846353297
 30
0.0
  0
VERTEX
  8
0
 10
57.7991532072
 20
110.356353297
 30
0.0
  0
VERTEX
  8
0
 10
58.665178611
 20
109.856353297
 30
0.0
  0
VERTEX
  8
0
 10
64.5321428888
 20
113.243646703
 30
0.0
  0
VERTEX
  8
0
 10
65.3981682926
 20
112.743646703
 30
0.0
  0
VERTEX
  8
0
 10
64.5321428888
 20
113.253646703
 30
0.0
  0
VERTEX
  8
0
 10
64.5321428888
 20
119.546353297
 30
0.0
  0
VERTEX
  8
0
 10
65.3981682926
 20
120.056353297
 30
0.0
  0
VERTEX
  8
0
 10
64.5321428888
 20
119.556353297
 30
0.0
  0
VERTEX
  8
0
 10
58.665178611
 20
122.943646703
 30
0.0
  0
VERTEX
  8
0
 10
57.7991532072
 20
122.443646703
 30
0.0
  0
VERTEX
  8
0
 10
58.665178611
 20
122.953646703
 30
0.0
  0
VERTEX
  8
0
 10
58.665178611
 20
129.246353297
 30
0.0
  0
VERTEX
  8
0
 10
57.7991532072
 20
129.756353297
 30
0.0
  0
VERTEX
  8
0
 10
58.665178611
 20
129.256353297
 30
0.0
  0
VERTEX
  8
0
 10
64.5321428888
 20
132.643646703
 30
0.0
  0
VERTEX
  8
0
 10
65.3981682926
 20
132.143646703
 30
0.0
  0
VERTEX
  8
0
 10
64.5321428888
 20
132.653646703
 30
0.0
  0
VERTEX
  8
0
 10
64.5321428888
 20
138.946353297
 30
0.0
  0
VERTEX
  8
0
 10
65.3981682926
 20
139.456353297
 30
0.0
  0
VERTEX
  8
0
 10
64.5321428888
 20
138.956353297
 30
0.0
  0
VERTEX
  8
0
 10
58.665178611
 20
142.343646703
 30
0.0
  0
VERTEX
  8
0
 10
57.7991532072
 20
141.843646703
 30
0.0
  0
VERTEX
  8
0
 10
58.665178611
 20
142.353646703
 30
0.0
  0
VERTEX
  8
0
 10
58.665178611
 20
148.656353297
 30
0.0
  0
VERTEX
  8
0
 10
64.5321428888
 20
152.043646703
 30
0.0
  0
VERTEX
  8
0
 10
65.3981682926
 20
151.543646703
 30
0.0
  0
VERTEX
  8
0
 10
64.5321428888
 20
152.053646703
 30
0.0
  0
VERTEX
  8
0
 10
64.5321428888
 20
155.19
 30
0.0
  0
VERTEX
  8
0
 10
64.0991301869
 20
155.2
 30
0.0
  0
VERTEX
  8
0
 10
64.5321428888
 20
155.2
 30
0.0
  0
VERTEX
  8
0
 10
66.8007793847
 20
155.2
 30
0.0
  0
VERTEX
  8
0
 10
71.9969318074
 20
152.2
 30
0.0
  0
VERTEX
  8
0
 10
71.9969318074
 20
155.19
 30
0.0
  0
VERTEX
  8
0
 10
72.4299445093
 20
155.2
 30
0.0
  0
VERTEX
  8
0
 10
71.9969318074
 20
155.2
 30
0.0
  0
VERTEX
  8
0
 10
71.9969318074
 20
180.2
 30
0.0
  0
VERTEX
  8
0
 10
76.265178611
 20
180.2
 30
0.0
  0
VERTEX
  8
0
 10
76.265178611
 20
157.7
 30
0.0
  0
SEQEND
  8
0
  0
POLYLINE
  8
0
 62
0
 70
0
 66
1
 10
0.0
 20
0.0
 30
0.0
  0
VERTEX
  8
0
 10
74.6664611367
 20
6.71
 30
0.0
  0
VERTEX
  8
0
 10
74.6664611367
 20
12.7
 30
0.0
  0
VERTEX
  8
0
 10
79.8626135594
 20
9.7
 30
0.0
  0
VERTEX
  8
0
 10
74.6664611367
 20
6.7
 30
0.0
  0
SEQEND
  8
0
  0
POLYLINE
  8
0
 62
0
 70
0
 66
1
 10
0.0
 20
0.0
 30
0.0
  0
VERTEX
  8
0
 10
71.9969318074
 20
94.01
 30
0.0
  0
VERTEX
  8
0
 10
71.9969318074
 20
100.0
 30
0.0
  0
VERTEX
  8
0
 10
66.8007793847
 20
97.0
 30
0.0
  0
VERTEX
  8
0
 10
71.9969318074
 20
94.0
 30
0.0
  0
SEQEND
  8
0
  0
POLYLINE
  8
0
 62
0
 70
0
 66
1
 10
0.0
 20
0.0
 30
0.0
  0
VERTEX
  8
0
 10
62.9334254145
 20
6.71
 30
0.0
  0
VERTEX
  8
0
 10
62.9334254145
 20
12.7
 30
0.0
  0
VERTEX
  8
0
 10
68.1295778372
 20
9.7
 30
0.0
  0
VERTEX
  8
0
 10
62.9334254145
 20
6.7
 30
0.0
  0
SEQEND
  8
0
  0
POLYLINE
  8
0
 62
0
 70
0
 66
1
 10
0.0
 20
0.0
 30
0.0
  0
VERTEX
  8
0
 10
74.6664611367
 20
26.11
 30
0.0
  0
VERTEX
  8
0
 10
74.6664611367
 20
32.1
 30
0.0
  0
VERTEX
  8
0
 10
79.8626135594
 20
29.1
 30
0.0
  0
VERTEX
  8
0
 10
74.6664611367
 20
26.1
 30
0.0
  0
SEQEND
  8
0
  0
POLYLINE
  8
0
 62
0
 70
0
 66
1
 10
0.0
 20
0.0
 30
0.0
  0
VERTEX
  8
0
 10
74.6664611367
 20
45.51
 30
0.0
  0
VERTEX
  8
0
 10
74.6664611367
 20
51.5
 30
0.0
  0
VERTEX
  8
0
 10
79.8626135594
 20
48.5
 30
0.0
  0
VERTEX
  8
0
 10
74.6664611367
 20
45.5
 30
0.0
  0
SEQEND
  8
0
  0
POLYLINE
  8
0
 62
0
 70
0
 66
1
 10
0.0
 20
0.0
 30
0.0
  0
VERTEX
  8
0
 10
62.9334254145
 20
26.11
 30
0.0
  0
VERTEX
  8
0
 10
62.9334254145
 20
32.1
 30
0.0
  0
VERTEX
  8
0
 10
68.1295778372
 20
29.1
 30
0.0
  0
VERTEX
  8
0
 10
62.9334254145
 20
26.1
 30
0.0
  0
SEQEND
  8
0
  0
POLYLINE
  8
0
 62
0
 70
0
 66
1
 10
0.0
 20
0.0
 30
0.0
  0
VERTEX
  8
0
 10
60.2638960852
 20
132.81
 30
0.0
  0
VERTEX
  8
0
 10
60.2638960852
 20
138.8
 30
0.0
  0
VERTEX
  8
0
 10
55.0677436625
 20
135.8
 30
0.0
  0
VERTEX
  8
0
 10
60.2638960852
 20
132.8
 30
0.0
  0
SEQEND
  8
0
  0
POLYLINE
  8
0
 62
0
 70
0
 66
1
 10
0.0
 20
0.0
 30
0.0
  0
VERTEX
  8
0
 10
62.9334254145
 20
64.91
 30
0.0
  0
VERTEX
  8
0
 10
62.9334254145
 20
70.9
 30
0.0
  0
VERTEX
  8
0
 10
68.1295778372
 20
67.9
 30
0.0
  0
VERTEX
  8
0
 10
62.9334254145
 20
64.9
 30
0.0
  0
SEQEND
  8
0
  0
POLYLINE
  8
0
 62
0
 70
0
 66
1
 10
0.0
 20
0.0
 30
0.0
  0
VERTEX
  8
0
 10
71.9969318074
 20
74.61
 30
0.0
  0
VERTEX
  8
0
 10
71.9969318074
 20
80.6
 30
0.0
  0
VERTEX
  8
0
 10
66.8007793847
 20
77.6
 30
0.0
  0
VERTEX
  8
0
 10
71.9969318074
 20
74.6
 30
0.0
  0
SEQEND
  8
0
  0
POLYLINE
  8
0
 62
0
 70
0
 66
1
 10
0.0
 20
0.0
 30
0.0
  0
VERTEX
  8
0
 10
62.9334254145
 20
84.31
 30
0.0
  0
VERTEX
  8
0
 10
62.9334254145
 20
90.3
 30
0.0
  0
VERTEX
  8
0
 10
68.1295778372
 20
87.3
 30
0.0
  0
VERTEX
  8
0
 10
62.9334254145
 20
84.3
 30
0.0
  0
SEQEND
  8
0
  0
POLYLINE
  8
0
 62
0
 70
0
 66
1
 10
0.0
 20
0.0
 30
0.0
  0
VERTEX
  8
0
 10
71.9969318074
 20
113.41
 30
0.0
  0
VERTEX
  8
0
 10
71.9969318074
 20
119.4
 30
0.0
  0
VERTEX
  8
0
 10
66.8007793847
 20
116.4
 30
0.0
  0
VERTEX
  8
0
 10
71.9969318074
 20
113.4
 30
0.0
  0
SEQEND
  8
0
  0
POLYLINE
  8
0
 62
0
 70
0
 66
1
 10
0.0
 20
0.0
 30
0.0
  0
VERTEX
  8
0
 10
62.9334254145
 20
123.11
 30
0.0
  0
VERTEX
  8
0
 10
62.9334254145
 20
129.1
 30
0.0
  0
VERTEX
  8
0
 10
68.1295778372
 20
126.1
 30
0.0
  0
VERTEX
  8
0
 10
62.9334254145
 20
123.1
 30
0.0
  0
SEQEND
  8
0
  0
POLYLINE
  8
0
 62
0
 70
0
 66
1
 10
0.0
 20
0.0
 30
0.0
  0
VERTEX
  8
0
 10
71.9969318074
 20
132.81
 30
0.0
  0
VERTEX
  8
0
 10
71.9969318074
 20
138.8
 30
0.0
  0
VERTEX
  8
0
 10
66.8007793847
 20
135.8
 30
0.0
  0
VERTEX
  8
0
 10
71.9969318074
 20
132.8
 30
0.0
  0
SEQEND
  8
0
  0
POLYLINE
  8
0
 62
0
 70
0
 66
1
 10
0.0
 20
0.0
 30
0.0
  0
VERTEX
  8
0
 10
71.9969318074
 20
55.21
 30
0.0
  0
VERTEX
  8
0
 10
71.9969318074
 20
61.2
 30
0.0
  0
VERTEX
  8
0
 10
66.8007793847
 20
58.2
 30
0.0
  0
VERTEX
  8
0
 10
71.9969318074
 20
55.2
 30
0.0
  0
SEQEND
  8
0
  0
POLYLINE
  8
0
 62
0
 70
0
 66
1
 10
0.0
 20
0.0
 30
0.0
  0
VERTEX
  8
0
 10
71.9969318074
 20
16.41
 30
0.0
  0
VERTEX
  8
0
 10
71.9969318074
 20
22.4
 30
0.0
  0
VERTEX
  8
0
 10
66.8007793847
 20
19.4
 30
0.0
  0
VERTEX
  8
0
 10
71.9969318074
 20
16.4
 30
0.0
  0
SEQEND
  8
0
  0
POLYLINE
  8
0
 62
0
 70
0
 66
1
 10
0.0
 20
0.0
 30
0.0
  0
VERTEX
  8
0
 10
51.2003896923
 20
103.71
 30
0.0
  0
VERTEX
  8
0
 10
51.2003896923
 20
109.7
 30
0.0
  0
VERTEX
  8
0
 10
56.3965421151
 20
106.7
 30
0.0
  0
VERTEX
  8
0
 10
51.2003896923
 20
103.7
 30
0.0
  0
SEQEND
  8
0
  0
POLYLINE
  8
0
 62
0
 70
0
 66
1
 10
0.0
 20
0.0
 30
0.0
  0
VERTEX
  8
0
 10
51.2003896923
 20
123.11
 30
0.0
  0
VERTEX
  8
0
 10
51.2003896923
 20
129.1
 30
0.0
  0
VERTEX
  8
0
 10
56.3965421151
 20
126.1
 30
0.0
  0
VERTEX
  8
0
 10
51.2003896923
 20
123.1
 30
0.0
  0
SEQEND
  8
0
  0
POLYLINE
  8
0
 62
0
 70
0
 66
1
 10
0.0
 20
0.0
 30
0.0
  0
VERTEX
  8
0
 10
60.2638960852
 20
113.41
 30
0.0
  0
VERTEX
  8
0
 10
60.2638960852
 20
119.4
 30
0.0
  0
VERTEX
  8
0
 10
55.0677436625
 20
116.4
 30
0.0
  0
VERTEX
  8
0
 10
60.2638960852
 20
113.4
 30
0.0
  0
SEQEND
  8
0
  0
POLYLINE
  8
0
 62
0
 70
0
 66
1
 10
0.0
 20
0.0
 30
0.0
  0
VERTEX
  8
0
 10
62.9334254145
 20
45.51
 30
0.0
  0
VERTEX
  8
0
 10
62.9334254145
 20
51.5
 30
0.0
  0
VERTEX
  8
0
 10
68.1295778372
 20
48.5
 30
0.0
  0
VERTEX
  8
0
 10
62.9334254145
 20
45.5
 30
0.0
  0
SEQEND
  8
0
  0
POLYLINE
  8
0
 62
0
 70
0
 66
1
 10
0.0
 20
0.0
 30
0.0
  0
VERTEX
  8
0
 10
62.9334254145
 20
103.71
 30
0.0
  0
VERTEX
  8
0
 10
62.9334254145
 20
109.7
 30
0.0
  0
VERTEX
  8
0
 10
68.1295778372
 20
106.7
 30
0.0
  0
VERTEX
  8
0
 10
62.9334254145
 20
103.7
 30
0.0
  0
SEQEND
  8
0
  0
POLYLINE
  8
0
 62
0
 70
0
 66
1
 10
0.0
 20
0.0
 30
0.0
  0
VERTEX
  8
0
 10
62.9334254145
 20
142.51
 30
0.0
  0
VERTEX
  8
0
 10
62.9334254145
 20
148.5
 30
0.0
  0
VERTEX
  8
0
 10
68.1295778372
 20
145.5
 30
0.0
  0
VERTEX
  8
0
 10
62.9334254145
 20
142.5
 30
0.0
  0
SEQEND
  8
0
  0
POLYLINE
  8
0
 62
0
 70
0
 66
1
 10
0.0
 20
0.0
 30
0.0
  0
VERTEX
  8
0
 10
76.265178611
 20
3.14635329744
 30
0.0
  0
VERTEX
  8
0
 10
77.1312040148
 20
3.65635329744
 30
0.0
  0
VERTEX
  8
0
 10
76.265178611
 20
3.15635329744
 30
0.0
  0
VERTEX
  8
0
 10
70.3982143332
 20
6.54364670256
 30
0.0
  0
VERTEX
  8
0
 10
69.5321889294
 20
6.04364670256
 30
0.0
  0
VERTEX
  8
0
 10
70.3982143332
 20
6.55364670256
 30
0.0
  0
VERTEX
  8
0
 10
70.3982143332
 20
12.8463532974
 30
0.0
  0
VERTEX
  8
0
 10
69.5321889294
 20
13.3563532974
 30
0.0
  0
VERTEX
  8
0
 10
70.3982143332
 20
12.8563532974
 30
0.0
  0
VERTEX
  8
0
 10
76.265178611
 20
16.2436467026
 30
0.0
  0
VERTEX
  8
0
 10
77.1312040148
 20
15.7436467026
 30
0.0
  0
VERTEX
  8
0
 10
76.265178611
 20
16.2536467026
 30
0.0
  0
VERTEX
  8
0
 10
76.265178611
 20
22.5463532974
 30
0.0
  0
VERTEX
  8
0
 10
77.1312040148
 20
23.0563532974
 30
0.0
  0
VERTEX
  8
0
 10
76.265178611
 20
22.5563532974
 30
0.0
  0
VERTEX
  8
0
 10
70.3982143332
 20
25.9436467026
 30
0.0
  0
VERTEX
  8
0
 10
69.5321889294
 20
25.4436467026
 30
0.0
  0
VERTEX
  8
0
 10
70.3982143332
 20
25.9536467026
 30
0.0
  0
VERTEX
  8
0
 10
70.3982143332
 20
32.2463532974
 30
0.0
  0
VERTEX
  8
0
 10
69.5321889294
 20
32.7563532974
 30
0.0
  0
VERTEX
  8
0
 10
70.3982143332
 20
32.2563532974
 30
0.0
  0
VERTEX
  8
0
 10
76.265178611
 20
35.6436467026
 30
0.0
  0
VERTEX
  8
0
 10
77.1312040148
 20
35.1436467026
 30
0.0
  0
VERTEX
  8
0
 10
76.265178611
 20
35.6536467026
 30
0.0
  0
VERTEX
  8
0
 10
76.265178611
 20
41.9463532974
 30
0.0
  0
VERTEX
  8
0
 10
77.1312040148
 20
42.4563532974
 30
0.0
  0
VERTEX
  8
0
 10
76.265178611
 20
41.9563532974
 30
0.0
  0
VERTEX
  8
0
 10
70.3982143332
 20
45.3436467026
 30
0.0
  0
VERTEX
  8
0
 10
69.5321889294
 20
44.8436467026
 30
0.0
  0
VERTEX
  8
0
 10
70.3982143332
 20
45.3536467026
 30
0.0
  0
VERTEX
  8
0
 10
70.3982143332
 20
51.6463532974
 30
0.0
  0
VERTEX
  8
0
 10
69.5321889294
 20
52.1563532974
 30
0.0
  0
VERTEX
  8
0
 10
70.3982143332
 20
51.6563532974
 30
0.0
  0
VERTEX
  8
0
 10
76.265178611
 20
55.0436467026
 30
0.0
  0
VERTEX
  8
0
 10
77.1312040148
 20
54.5436467026
 30
0.0
  0
VERTEX
  8
0
 10
76.265178611
 20
55.0536467026
 30
0.0
  0
VERTEX
  8
0
 10
76.265178611
 20
61.3463532974
 30
0.0
  0
VERTEX
  8
0
 10
77.1312040148
 20
61.8563532974
 30
0.0
  0
VERTEX
  8
0
 10
76.265178611
 20
61.3563532974
 30
0.0
  0
VERTEX
  8
0
 10
70.3982143332
 20
64.7436467026
 30
0.0
  0
VERTEX
  8
0
 10
69.5321889294
 20
64.2436467026
 30
0.0
  0
VERTEX
  8
0
 10
70.3982143332
 20
64.7536467026
 30
0.0
  0
VERTEX
  8
0
 10
70.3982143332
 20
71.0463532974
 30
0.0
  0
VERTEX
  8
0
 10
69.5321889294
 20
71.5563532974
 30
0.0
  0
VERTEX
  8
0
 10
70.3982143332
 20
71.0563532974
 30
0.0
  0
VERTEX
  8
0
 10
76.265178611
 20
74.4436467026
 30
0.0
  0
VERTEX
  8
0
 10
77.1312040148
 20
73.9436467026
 30
0.0
  0
VERTEX
  8
0
 10
76.265178611
 20
74.4536467026
 30
0.0
  0
VERTEX
  8
0
 10
76.265178611
 20
80.7463532974
 30
0.0
  0
VERTEX
  8
0
 10
77.1312040148
 20
81.2563532974
 30
0.0
  0
VERTEX
  8
0
 10
76.265178611
 20
80.7563532974
 30
0.0
  0
VERTEX
  8
0
 10
70.3982143332
 20
84.1436467026
 30
0.0
  0
VERTEX
  8
0
 10
69.5321889294
 20
83.6436467026
 30
0.0
  0
VERTEX
  8
0
 10
70.3982143332
 20
84.1536467026
 30
0.0
  0
VERTEX
  8
0
 10
70.3982143332
 20
90.4463532974
 30
0.0
  0
VERTEX
  8
0
 10
69.5321889294
 20
90.9563532974
 30
0.0
  0
VERTEX
  8
0
 10
70.3982143332
 20
90.4563532974
 30
0.0
  0
VERTEX
  8
0
 10
76.265178611
 20
93.8436467026
 30
0.0
  0
VERTEX
  8
0
 10
77.1312040148
 20
93.3436467026
 30
0.0
  0
VERTEX
  8
0
 10
76.265178611
 20
93.8536467026
 30
0.0
  0
VERTEX
  8
0
 10
76.265178611
 20
100.146353297
 30
0.0
  0
VERTEX
  8
0
 10
77.1312040148
 20
100.656353297
 30
0.0
  0
VERTEX
  8
0
 10
76.265178611
 20
100.156353297
 30
0.0
  0
VERTEX
  8
0
 10
70.3982143332
 20
103.543646703
 30
0.0
  0
VERTEX
  8
0
 10
69.5321889294
 20
103.043646703
 30
0.0
  0
VERTEX
  8
0
 10
70.3982143332
 20
103.553646703
 30
0.0
  0
VERTEX
  8
0
 10
70.3982143332
 20
109.846353297
 30
0.0
  0
VERTEX
  8
0
 10
69.5321889294
 20
110.356353297
 30
0.0
  0
VERTEX
  8
0
 10
70.3982143332
 20
109.856353297
 30
0.0
  0
VERTEX
  8
0
 10
76.265178611
 20
113.243646703
 30
0.0
  0
VERTEX
  8
0
 10
77.1312040148
 20
112.743646703
 30
0.0
  0
VERTEX
  8
0
 10
76.265178611
 20
113.253646703
 30
0.0
  0
VERTEX
  8
0
 10
76.265178611
 20
119.546353297
 30
0.0
  0
VERTEX
  8
0
 10
77.1312040148
 20
120.056353297
 30
0.0
  0
VERTEX
  8
0
 10
76.265178611
 20
119.556353297
 30
0.0
  0
VERTEX
  8
0
 10
70.3982143332
 20
122.943646703
 30
0.0
  0
VERTEX
  8
0
 10
69.5321889294
 20
122.443646703
 30
0.0
  0
VERTEX
  8
0
 10
70.3982143332
 20
122.953646703
 30
0.0
  0
VERTEX
  8
0
 10
70.3982143332
 20
129.246353297
 30
0.0
  0
VERTEX
  8
0
 10
69.5321889294
 20
129.756353297
 30
0.0
  0
VERTEX
  8
0
 10
70.3982143332
 20
129.256353297
 30
0.0
  0
VERTEX
  8
0
 10
76.265178611
 20
132.643646703
 30
0.0
  0
VERTEX
  8
0
 10
77.1312040148
 20
132.143646703
 30
0.0
  0
VERTEX
  8
0
 10
76.265178611
 20
132.653646703
 30
0.0
  0
VERTEX
  8
0
 10
76.265178611
 20
138.946353297
 30
0.0
  0
VERTEX
  8
0
 10
77.1312040148
 20
139.456353297
 30
0.0
  0
VERTEX
  8
0
 10
76.265178611
 20
138.956353297
 30
0.0
  0
VERTEX
  8
0
 10
70.3982143332
 20
142.343646703
 30
0.0
  0
VERTEX
  8
0
 10
69.5321889294
 20
141.843646703
 30
0.0
  0
VERTEX
  8
0
 10
70.3982143332
 20
142.353646703
 30
0.0
  0
VERTEX
  8
0
 10
70.3982143332
 20
148.656353297
 30
0.0
  0
VERTEX
  8
0
 10
76.265178611
 20
152.043646703
 30
0.0
  0
VERTEX
  8
0
 10
77.1312040148
 20
151.543646703
 30
0.0
  0
VERTEX
  8
0
 10
76.265178611
 20
152.053646703
 30
0.0
  0
VERTEX
  8
0
 10
76.265178611
 20
155.19
 30
0.0
  0
VERTEX
  8
0
 10
75.8321659091
 20
155.2
 30
0.0
  0
VERTEX
  8
0
 10
76.265178611
 20
155.2
 30
0.0
  0
VERTEX
  8
0
 10
78.5338151069
 20
155.2
 30
0.0
  0
VERTEX
  8
0
 10
83.7299675296
 20
152.2
 30
0.0
  0
VERTEX
  8
0
 10
83.7299675296
 20
155.19
 30
0.0
  0
VERTEX
  8
0
 10
84.1629802315
 20
155.2
 30
0.0
  0
VERTEX
  8
0
 10
83.7299675296
 20
155.2
 30
0.0
  0
VERTEX
  8
0
 10
83.7299675296
 20
180.2
 30
0.0
  0
VERTEX
  8
0
 10
87.9982143332
 20
180.2
 30
0.0
  0
VERTEX
  8
0
 10
87.9982143332
 20
157.7
 30
0.0
  0
SEQEND
  8
0
  0
POLYLINE
  8
0
 62
0
 70
0
 66
1
 10
0.0
 20
0.0
 30
0.0
  0
VERTEX
  8
0
 10
83.7299675296
 20
16.41
 30
0.0
  0
VERTEX
  8
0
 10
83.7299675296
 20
22.4
 30
0.0
  0
VERTEX
  8
0
 10
78.5338151069
 20
19.4
 30
0.0
  0
VERTEX
  8
0
 10
83.7299675296
 20
16.4
 30
0.0
  0
SEQEND
  8
0
  0
POLYLINE
  8
0
 62
0
 70
0
 66
1
 10
0.0
 20
0.0
 30
0.0
  0
VERTEX
  8
0
 10
83.7299675296
 20
35.81
 30
0.0
  0
VERTEX
  8
0
 10
83.7299675296
 20
41.8
 30
0.0
  0
VERTEX
  8
0
 10
78.5338151069
 20
38.8
 30
0.0
  0
VERTEX
  8
0
 10
83.7299675296
 20
35.8
 30
0.0
  0
SEQEND
  8
0
  0
POLYLINE
  8
0
 62
0
 70
0
 66
1
 10
0.0
 20
0.0
 30
0.0
  0
VERTEX
  8
0
 10
83.7299675296
 20
55.21
 30
0.0
  0
VERTEX
  8
0
 10
83.7299675296
 20
61.2
 30
0.0
  0
VERTEX
  8
0
 10
78.5338151069
 20
58.2
 30
0.0
  0
VERTEX
  8
0
 10
83.7299675296
 20
55.2
 30
0.0
  0
SEQEND
  8
0
  0
POLYLINE
  8
0
 62
0
 70
0
 66
1
 10
0.0
 20
0.0
 30
0.0
  0
VERTEX
  8
0
 10
74.6664611367
 20
64.91
 30
0.0
  0
VERTEX
  8
0
 10
74.6664611367
 20
70.9
 30
0.0
  0
VERTEX
  8
0
 10
79.8626135594
 20
67.9
 30
0.0
  0
VERTEX
  8
0
 10
74.6664611367
 20
64.9
 30
0.0
  0
SEQEND
  8
0
  0
POLYLINE
  8
0
 62
0
 70
0
 66
1
 10
0.0
 20
0.0
 30
0.0
  0
VERTEX
  8
0
 10
74.6664611367
 20
84.31
 30
0.0
  0
VERTEX
  8
0
 10
74.6664611367
 20
90.3
 30
0.0
  0
VERTEX
  8
0
 10
79.8626135594
 20
87.3
 30
0.0
  0
VERTEX
  8
0
 10
74.6664611367
 20
84.3
 30
0.0
  0
SEQEND
  8
0
  0
POLYLINE
  8
0
 62
0
 70
0
 66
1
 10
0.0
 20
0.0
 30
0.0
  0
VERTEX
  8
0
 10
83.7299675296
 20
94.01
 30
0.0
  0
VERTEX
  8
0
 10
83.7299675296
 20
100.0
 30
0.0
  0
VERTEX
  8
0
 10
78.5338151069
 20
97.0
 30
0.0
  0
VERTEX
  8
0
 10
83.7299675296
 20
94.0
 30
0.0
  0
SEQEND
  8
0
  0
POLYLINE
  8
0
 62
0
 70
0
 66
1
 10
0.0
 20
0.0
 30
0.0
  0
VERTEX
  8
0
 10
74.6664611367
 20
103.71
 30
0.0
  0
VERTEX
  8
0
 10
74.6664611367
 20
109.7
 30
0.0
  0
VERTEX
  8
0
 10
79.8626135594
 20
106.7
 30
0.0
  0
VERTEX
  8
0
 10
74.6664611367
 20
103.7
 30
0.0
  0
SEQEND
  8
0
  0
POLYLINE
  8
0
 62
0
 70
0
 66
1
 10
0.0
 20
0.0
 30
0.0
  0
VERTEX
  8
0
 10
83.7299675296
 20
113.41
 30
0.0
  0
VERTEX
  8
0
 10
83.7299675296
 20
119.4
 30
0.0
  0
VERTEX
  8
0
 10
78.5338151069
 20
116.4
 30
0.0
  0
VERTEX
  8
0
 10
83.7299675296
 20
113.4
 30
0.0
  0
SEQEND
  8
0
  0
POLYLINE
  8
0
 62
0
 70
0
 66
1
 10
0.0
 20
0.0
 30
0.0
  0
VERTEX
  8
0
 10
74.6664611367
 20
123.11
 30
0.0
  0
VERTEX
  8
0
 10
74.6664611367
 20
129.1
 30
0.0
  0
VERTEX
  8
0
 10
79.8626135594
 20
126.1
 30
0.0
  0
VERTEX
  8
0
 10
74.6664611367
 20
123.1
 30
0.0
  0
SEQEND
  8
0
  0
POLYLINE
  8
0
 62
0
 70
0
 66
1
 10
0.0
 20
0.0
 30
0.0
  0
VERTEX
  8
0
 10
83.7299675296
 20
74.61
 30
0.0
  0
VERTEX
  8
0
 10
83.7299675296
 20
80.6
 30
0.0
  0
VERTEX
  8
0
 10
78.5338151069
 20
77.6
 30
0.0
  0
VERTEX
  8
0
 10
83.7299675296
 20
74.6
 30
0.0
  0
SEQEND
  8
0
  0
POLYLINE
  8
0
 62
0
 70
0
 66
1
 10
0.0
 20
0.0
 30
0.0
  0
VERTEX
  8
0
 10
83.7299675296
 20
132.81
 30
0.0
  0
VERTEX
  8
0
 10
83.7299675296
 20
138.8
 30
0.0
  0
VERTEX
  8
0
 10
78.5338151069
 20
135.8
 30
0.0
  0
VERTEX
  8
0
 10
83.7299675296
 20
132.8
 30
0.0
  0
SEQEND
  8
0
  0
POLYLINE
  8
0
 62
0
 70
0
 66
1
 10
0.0
 20
0.0
 30
0.0
  0
VERTEX
  8
0
 10
74.6664611367
 20
142.51
 30
0.0
  0
VERTEX
  8
0
 10
74.6664611367
 20
148.5
 30
0.0
  0
VERTEX
  8
0
 10
79.8626135594
 20
145.5
 30
0.0
  0
VERTEX
  8
0
 10
74.6664611367
 20
142.5
 30
0.0
  0
SEQEND
  8
0
  0
POLYLINE
  8
0
 62
0
 70
0
 66
1
 10
0.0
 20
0.0
 30
0.0
  0
VERTEX
  8
0
 10
95.4630032518
 20
16.41
 30
0.0
  0
VERTEX
  8
0
 10
95.4630032518
 20
22.4
 30
0.0
  0
VERTEX
  8
0
 10
90.2668508291
 20
19.4
 30
0.0
  0
VERTEX
  8
0
 10
95.4630032518
 20
16.4
 30
0.0
  0
SEQEND
  8
0
  0
POLYLINE
  8
0
 62
0
 70
0
 66
1
 10
0.0
 20
0.0
 30
0.0
  0
VERTEX
  8
0
 10
86.3994968589
 20
26.11
 30
0.0
  0
VERTEX
  8
0
 10
86.3994968589
 20
32.1
 30
0.0
  0
VERTEX
  8
0
 10
91.5956492816
 20
29.1
 30
0.0
  0
VERTEX
  8
0
 10
86.3994968589
 20
26.1
 30
0.0
  0
SEQEND
  8
0
  0
POLYLINE
  8
0
 62
0
 70
0
 66
1
 10
0.0
 20
0.0
 30
0.0
  0
VERTEX
  8
0
 10
87.9982143332
 20
3.14635329744
 30
0.0
  0
VERTEX
  8
0
 10
88.8642397369
 20
3.65635329744
 30
0.0
  0
VERTEX
  8
0
 10
87.9982143332
 20
3.15635329744
 30
0.0
  0
VERTEX
  8
0
 10
82.1312500554
 20
6.54364670256
 30
0.0
  0
VERTEX
  8
0
 10
81.2652246516
 20
6.04364670256
 30
0.0
  0
VERTEX
  8
0
 10
82.1312500554
 20
6.55364670256
 30
0.0
  0
VERTEX
  8
0
 10
82.1312500554
 20
12.8463532974
 30
0.0
  0
VERTEX
  8
0
 10
81.2652246516
 20
13.3563532974
 30
0.0
  0
VERTEX
  8
0
 10
82.1312500554
 20
12.8563532974
 30
0.0
  0
VERTEX
  8
0
 10
87.9982143332
 20
16.2436467026
 30
0.0
  0
VERTEX
  8
0
 10
88.8642397369
 20
15.7436467026
 30
0.0
  0
VERTEX
  8
0
 10
87.9982143332
 20
16.2536467026
 30
0.0
  0
VERTEX
  8
0
 10
87.9982143332
 20
22.5463532974
 30
0.0
  0
VERTEX
  8
0
 10
88.8642397369
 20
23.0563532974
 30
0.0
  0
VERTEX
  8
0
 10
87.9982143332
 20
22.5563532974
 30
0.0
  0
VERTEX
  8
0
 10
82.1312500554
 20
25.9436467026
 30
0.0
  0
VERTEX
  8
0
 10
81.2652246516
 20
25.4436467026
 30
0.0
  0
VERTEX
  8
0
 10
82.1312500554
 20
25.9536467026
 30
0.0
  0
VERTEX
  8
0
 10
82.1312500554
 20
32.2463532974
 30
0.0
  0
VERTEX
  8
0
 10
81.2652246516
 20
32.7563532974
 30
0.0
  0
VERTEX
  8
0
 10
82.1312500554
 20
32.2563532974
 30
0.0
  0
VERTEX
  8
0
 10
87.9982143332
 20
35.6436467026
 30
0.0
  0
VERTEX
  8
0
 10
88.8642397369
 20
35.1436467026
 30
0.0
  0
VERTEX
  8
0
 10
87.9982143332
 20
35.6536467026
 30
0.0
  0
VERTEX
  8
0
 10
87.9982143332
 20
41.9463532974
 30
0.0
  0
VERTEX
  8
0
 10
88.8642397369
 20
42.4563532974
 30
0.0
  0
VERTEX
  8
0
 10
87.9982143332
 20
41.9563532974
 30
0.0
  0
VERTEX
  8
0
 10
82.1312500554
 20
45.3436467026
 30
0.0
  0
VERTEX
  8
0
 10
81.2652246516
 20
44.8436467026
 30
0.0
  0
VERTEX
  8
0
 10
82.1312500554
 20
45.3536467026
 30
0.0
  0
VERTEX
  8
0
 10
82.1312500554
 20
51.6463532974
 30
0.0
  0
VERTEX
  8
0
 10
81.2652246516
 20
52.1563532974
 30
0.0
  0
VERTEX
  8
0
 10
82.1312500554
 20
51.6563532974
 30
0.0
  0
VERTEX
  8
0
 10
87.9982143332
 20
55.0436467026
 30
0.0
  0
VERTEX
  8
0
 10
88.8642397369
 20
54.5436467026
 30
0.0
  0
VERTEX
  8
0
 10
87.9982143332
 20
55.0536467026
 30
0.0
  0
VERTEX
  8
0
 10
87.9982143332
 20
61.3463532974
 30
0.0
  0
VERTEX
  8
0
 10
88.8642397369
 20
61.8563532974
 30
0.0
  0
VERTEX
  8
0
 10
87.9982143332
 20
61.3563532974
 30
0.0
  0
VERTEX
  8
0
 10
82.1312500554
 20
64.7436467026
 30
0.0
  0
VERTEX
  8
0
 10
81.2652246516
 20
64.2436467026
 30
0.0
  0
VERTEX
  8
0
 10
82.1312500554
 20
64.7536467026
 30
0.0
  0
VERTEX
  8
0
 10
82.1312500554
 20
71.0463532974
 30
0.0
  0
VERTEX
  8
0
 10
81.2652246516
 20
71.5563532974
 30
0.0
  0
VERTEX
  8
0
 10
82.1312500554
 20
71.0563532974
 30
0.0
  0
VERTEX
  8
0
 10
87.9982143332
 20
74.4436467026
 30
0.0
  0
VERTEX
  8
0
 10
88.8642397369
 20
73.9436467026
 30
0.0
  0
VERTEX
  8
0
 10
87.9982143332
 20
74.4536467026
 30
0.0
  0
VERTEX
  8
0
 10
87.9982143332
 20
80.7463532974
 30
0.0
  0
VERTEX
  8
0
 10
88.8642397369
 20
81.2563532974
 30
0.0
  0
VERTEX
  8
0
 10
87.9982143332
 20
80.7563532974
 30
0.0
  0
VERTEX
  8
0
 10
82.1312500554
 20
84.1436467026
 30
0.0
  0
VERTEX
  8
0
 10
81.2652246516
 20
83.6436467026
 30
0.0
  0
VERTEX
  8
0
 10
82.1312500554
 20
84.1536467026
 30
0.0
  0
VERTEX
  8
0
 10
82.1312500554
 20
90.4463532974
 30
0.0
  0
VERTEX
  8
0
 10
81.2652246516
 20
90.9563532974
 30
0.0
  0
VERTEX
  8
0
 10
82.1312500554
 20
90.4563532974
 30
0.0
  0
VERTEX
  8
0
 10
87.9982143332
 20
93.8436467026
 30
0.0
  0
VERTEX
  8
0
 10
88.8642397369
 20
93.3436467026
 30
0.0
  0
VERTEX
  8
0
 10
87.9982143332
 20
93.8536467026
 30
0.0
  0
VERTEX
  8
0
 10
87.9982143332
 20
100.146353297
 30
0.0
  0
VERTEX
  8
0
 10
88.8642397369
 20
100.656353297
 30
0.0
  0
VERTEX
  8
0
 10
87.9982143332
 20
100.156353297
 30
0.0
  0
VERTEX
  8
0
 10
82.1312500554
 20
103.543646703
 30
0.0
  0
VERTEX
  8
0
 10
81.2652246516
 20
103.043646703
 30
0.0
  0
VERTEX
  8
0
 10
82.1312500554
 20
103.553646703
 30
0.0
  0
VERTEX
  8
0
 10
82.1312500554
 20
109.846353297
 30
0.0
  0
VERTEX
  8
0
 10
81.2652246516
 20
110.356353297
 30
0.0
  0
VERTEX
  8
0
 10
82.1312500554
 20
109.856353297
 30
0.0
  0
VERTEX
  8
0
 10
87.9982143332
 20
113.243646703
 30
0.0
  0
VERTEX
  8
0
 10
88.8642397369
 20
112.743646703
 30
0.0
  0
VERTEX
  8
0
 10
87.9982143332
 20
113.253646703
 30
0.0
  0
VERTEX
  8
0
 10
87.9982143332
 20
119.546353297
 30
0.0
  0
VERTEX
  8
0
 10
88.8642397369
 20
120.056353297
 30
0.0
  0
VERTEX
  8
0
 10
87.9982143332
 20
119.556353297
 30
0.0
  0
VERTEX
  8
0
 10
82.1312500554
 20
122.943646703
 30
0.0
  0
VERTEX
  8
0
 10
81.2652246516
 20
122.443646703
 30
0.0
  0
VERTEX
  8
0
 10
82.1312500554
 20
122.953646703
 30
0.0
  0
VERTEX
  8
0
 10
82.1312500554
 20
129.246353297
 30
0.0
  0
VERTEX
  8
0
 10
81.2652246516
 20
129.756353297
 30
0.0
  0
VERTEX
  8
0
 10
82.1312500554
 20
129.256353297
 30
0.0
  0
VERTEX
  8
0
 10
87.9982143332
 20
132.643646703
 30
0.0
  0
VERTEX
  8
0
 10
88.8642397369
 20
132.143646703
 30
0.0
  0
VERTEX
  8
0
 10
87.9982143332
 20
132.653646703
 30
0.0
  0
VERTEX
  8
0
 10
87.9982143332
 20
138.946353297
 30
0.0
  0
VERTEX
  8
0
 10
88.8642397369
 20
139.456353297
 30
0.0
  0
VERTEX
  8
0
 10
87.9982143332
 20
138.956353297
 30
0.0
  0
VERTEX
  8
0
 10
82.1312500554
 20
142.343646703
 30
0.0
  0
VERTEX
  8
0
 10
81.2652246516
 20
141.843646703
 30
0.0
  0
VERTEX
  8
0
 10
82.1312500554
 20
142.353646703
 30
0.0
  0
VERTEX
  8
0
 10
82.1312500554
 20
148.656353297
 30
0.0
  0
VERTEX
  8
0
 10
87.9982143332
 20
152.043646703
 30
0.0
  0
VERTEX
  8
0
 10
88.8642397369
 20
151.543646703
 30
0.0
  0
VERTEX
  8
0
 10
87.9982143332
 20
152.053646703
 30
0.0
  0
VERTEX
  8
0
 10
87.9982143332
 20
155.19
 30
0.0
  0
VERTEX
  8
0
 10
87.5652016313
 20
155.2
 30
0.0
  0
VERTEX
  8
0
 10
87.9982143332
 20
155.2
 30
0.0
  0
VERTEX
  8
0
 10
90.2668508291
 20
155.2
 30
0.0
  0
VERTEX
  8
0
 10
95.4630032518
 20
152.2
 30
0.0
  0
VERTEX
  8
0
 10
95.4630032518
 20
155.19
 30
0.0
  0
VERTEX
  8
0
 10
95.8960159537
 20
155.2
 30
0.0
  0
VERTEX
  8
0
 10
95.4630032518
 20
155.2
 30
0.0
  0
VERTEX
  8
0
 10
95.4630032518
 20
180.2
 30
0.0
  0
VERTEX
  8
0
 10
99.7312500554
 20
180.2
 30
0.0
  0
VERTEX
  8
0
 10
99.7312500554
 20
157.7
 30
0.0
  0
SEQEND
  8
0
  0
POLYLINE
  8
0
 62
0
 70
0
 66
1
 10
0.0
 20
0.0
 30
0.0
  0
VERTEX
  8
0
 10
95.4630032518
 20
35.81
 30
0.0
  0
VERTEX
  8
0
 10
95.4630032518
 20
41.8
 30
0.0
  0
VERTEX
  8
0
 10
90.2668508291
 20
38.8
 30
0.0
  0
VERTEX
  8
0
 10
95.4630032518
 20
35.8
 30
0.0
  0
SEQEND
  8
0
  0
POLYLINE
  8
0
 62
0
 70
0
 66
1
 10
0.0
 20
0.0
 30
0.0
  0
VERTEX
  8
0
 10
86.3994968589
 20
45.51
 30
0.0
  0
VERTEX
  8
0
 10
86.3994968589
 20
51.5
 30
0.0
  0
VERTEX
  8
0
 10
91.5956492816
 20
48.5
 30
0.0
  0
VERTEX
  8
0
 10
86.3994968589
 20
45.5
 30
0.0
  0
SEQEND
  8
0
  0
POLYLINE
  8
0
 62
0
 70
0
 66
1
 10
0.0
 20
0.0
 30
0.0
  0
VERTEX
  8
0
 10
95.4630032518
 20
55.21
 30
0.0
  0
VERTEX
  8
0
 10
95.4630032518
 20
61.2
 30
0.0
  0
VERTEX
  8
0
 10
90.2668508291
 20
58.2
 30
0.0
  0
VERTEX
  8
0
 10
95.4630032518
 20
55.2
 30
0.0
  0
SEQEND
  8
0
  0
POLYLINE
  8
0
 62
0
 70
0
 66
1
 10
0.0
 20
0.0
 30
0.0
  0
VERTEX
  8
0
 10
86.3994968589
 20
64.91
 30
0.0
  0
VERTEX
  8
0
 10
86.3994968589
 20
70.9
 30
0.0
  0
VERTEX
  8
0
 10
91.5956492816
 20
67.9
 30
0.0
  0
VERTEX
  8
0
 10
86.3994968589
 20
64.9
 30
0.0
  0
SEQEND
  8
0
  0
POLYLINE
  8
0
 62
0
 70
0
 66
1
 10
0.0
 20
0.0
 30
0.0
  0
VERTEX
  8
0
 10
95.4630032518
 20
74.61
 30
0.0
  0
VERTEX
  8
0
 10
95.4630032518
 20
80.6
 30
0.0
  0
VERTEX
  8
0
 10
90.2668508291
 20
77.6
 30
0.0
  0
VERTEX
  8
0
 10
95.4630032518
 20
74.6
 30
0.0
  0
SEQEND
  8
0
  0
POLYLINE
  8
0
 62
0
 70
0
 66
1
 10
0.0
 20
0.0
 30
0.0
  0
VERTEX
  8
0
 10
86.3994968589
 20
84.31
 30
0.0
  0
VERTEX
  8
0
 10
86.3994968589
 20
90.3
 30
0.0
  0
VERTEX
  8
0
 10
91.5956492816
 20
87.3
 30
0.0
  0
VERTEX
  8
0
 10
86.3994968589
 20
84.3
 30
0.0
  0
SEQEND
  8
0
  0
POLYLINE
  8
0
 62
0
 70
0
 66
1
 10
0.0
 20
0.0
 30
0.0
  0
VERTEX
  8
0
 10
95.4630032518
 20
94.01
 30
0.0
  0
VERTEX
  8
0
 10
95.4630032518
 20
100.0
 30
0.0
  0
VERTEX
  8
0
 10
90.2668508291
 20
97.0
 30
0.0
  0
VERTEX
  8
0
 10
95.4630032518
 20
94.0
 30
0.0
  0
SEQEND
  8
0
  0
POLYLINE
  8
0
 62
0
 70
0
 66
1
 10
0.0
 20
0.0
 30
0.0
  0
VERTEX
  8
0
 10
86.3994968589
 20
103.71
 30
0.0
  0
VERTEX
  8
0
 10
86.3994968589
 20
109.7
 30
0.0
  0
VERTEX
  8
0
 10
91.5956492816
 20
106.7
 30
0.0
  0
VERTEX
  8
0
 10
86.3994968589
 20
103.7
 30
0.0
  0
SEQEND
  8
0
  0
POLYLINE
  8
0
 62
0
 70
0
 66
1
 10
0.0
 20
0.0
 30
0.0
  0
VERTEX
  8
0
 10
95.4630032518
 20
113.41
 30
0.0
  0
VERTEX
  8
0
 10
95.4630032518
 20
119.4
 30
0.0
  0
VERTEX
  8
0
 10
90.2668508291
 20
116.4
 30
0.0
  0
VERTEX
  8
0
 10
95.4630032518
 20
113.4
 30
0.0
  0
SEQEND
  8
0
  0
POLYLINE
  8
0
 62
0
 70
0
 66
1
 10
0.0
 20
0.0
 30
0.0
  0
VERTEX
  8
0
 10
86.3994968589
 20
6.71
 30
0.0
  0
VERTEX
  8
0
 10
86.3994968589
 20
12.7
 30
0.0
  0
VERTEX
  8
0
 10
91.5956492816
 20
9.7
 30
0.0
  0
VERTEX
  8
0
 10
86.3994968589
 20
6.7
 30
0.0
  0
SEQEND
  8
0
  0
POLYLINE
  8
0
 62
0
 70
0
 66
1
 10
0.0
 20
0.0
 30
0.0
  0
VERTEX
  8
0
 10
4.26824680357
 20
6.71
 30
0.0
  0
VERTEX
  8
0
 10
4.26824680357
 20
12.7
 30
0.0
  0
VERTEX
  8
0
 10
9.46439922628
 20
9.7
 30
0.0
  0
VERTEX
  8
0
 10
4.26824680357
 20
6.7
 30
0.0
  0
SEQEND
  8
0
  0
POLYLINE
  8
0
 62
0
 70
0
 66
1
 10
0.0
 20
0.0
 30
0.0
  0
VERTEX
  8
0
 10
4.26824680357
 20
84.31
 30
0.0
  0
VERTEX
  8
0
 10
4.26824680357
 20
90.3
 30
0.0
  0
VERTEX
  8
0
 10
9.46439922628
 20
87.3
 30
0.0
  0
VERTEX
  8
0
 10
4.26824680357
 20
84.3
 30
0.0
  0
SEQEND
  8
0
  0
POLYLINE
  8
0
 62
0
 70
0
 66
1
 10
0.0
 20
0.0
 30
0.0
  0
VERTEX
  8
0
 10
4.26824680357
 20
64.91
 30
0.0
  0
VERTEX
  8
0
 10
4.26824680357
 20
70.9
 30
0.0
  0
VERTEX
  8
0
 10
9.46439922628
 20
67.9
 30
0.0
  0
VERTEX
  8
0
 10
4.26824680357
 20
64.9
 30
0.0
  0
SEQEND
  8
0
  0
POLYLINE
  8
0
 62
0
 70
0
 66
1
 10
0.0
 20
0.0
 30
0.0
  0
VERTEX
  8
0
 10
4.26824680357
 20
123.11
 30
0.0
  0
VERTEX
  8
0
 10
4.26824680357
 20
129.1
 30
0.0
  0
VERTEX
  8
0
 10
9.46439922628
 20
126.1
 30
0.0
  0
VERTEX
  8
0
 10
4.26824680357
 20
123.1
 30
0.0
  0
SEQEND
  8
0
  0
POLYLINE
  8
0
 62
0
 70
0
 66
1
 10
0.0
 20
0.0
 30
0.0
  0
VERTEX
  8
0
 10
25.0647889186
 20
35.81
 30
0.0
  0
VERTEX
  8
0
 10
25.0647889186
 20
41.8
 30
0.0
  0
VERTEX
  8
0
 10
19.8686364959
 20
38.8
 30
0.0
  0
VERTEX
  8
0
 10
25.0647889186
 20
35.8
 30
0.0
  0
SEQEND
  8
0
  0
POLYLINE
  8
0
 62
0
 70
0
 66
1
 10
0.0
 20
0.0
 30
0.0
  0
VERTEX
  8
0
 10
13.3317531964
 20
16.41
 30
0.0
  0
VERTEX
  8
0
 10
13.3317531964
 20
22.4
 30
0.0
  0
VERTEX
  8
0
 10
8.13560077372
 20
19.4
 30
0.0
  0
VERTEX
  8
0
 10
13.3317531964
 20
16.4
 30
0.0
  0
SEQEND
  8
0
  0
POLYLINE
  8
0
 62
0
 70
0
 66
1
 10
0.0
 20
0.0
 30
0.0
  0
VERTEX
  8
0
 10
4.26824680357
 20
26.11
 30
0.0
  0
VERTEX
  8
0
 10
4.26824680357
 20
32.1
 30
0.0
  0
VERTEX
  8
0
 10
9.46439922628
 20
29.1
 30
0.0
  0
VERTEX
  8
0
 10
4.26824680357
 20
26.1
 30
0.0
  0
SEQEND
  8
0
  0
POLYLINE
  8
0
 62
0
 70
0
 66
1
 10
0.0
 20
0.0
 30
0.0
  0
VERTEX
  8
0
 10
13.3317531964
 20
74.61
 30
0.0
  0
VERTEX
  8
0
 10
13.3317531964
 20
80.6
 30
0.0
  0
VERTEX
  8
0
 10
8.13560077372
 20
77.6
 30
0.0
  0
VERTEX
  8
0
 10
13.3317531964
 20
74.6
 30
0.0
  0
SEQEND
  8
0
  0
POLYLINE
  8
0
 62
0
 70
0
 66
1
 10
0.0
 20
0.0
 30
0.0
  0
VERTEX
  8
0
 10
4.26824680357
 20
45.51
 30
0.0
  0
VERTEX
  8
0
 10
4.26824680357
 20
51.5
 30
0.0
  0
VERTEX
  8
0
 10
9.46439922628
 20
48.5
 30
0.0
  0
VERTEX
  8
0
 10
4.26824680357
 20
45.5
 30
0.0
  0
SEQEND
  8
0
  0
POLYLINE
  8
0
 62
0
 70
0
 66
1
 10
0.0
 20
0.0
 30
0.0
  0
VERTEX
  8
0
 10
13.3317531964
 20
132.81
 30
0.0
  0
VERTEX
  8
0
 10
13.3317531964
 20
138.8
 30
0.0
  0
VERTEX
  8
0
 10
8.13560077372
 20
135.8
 30
0.0
  0
VERTEX
  8
0
 10
13.3317531964
 20
132.8
 30
0.0
  0
SEQEND
  8
0
  0
POLYLINE
  8
0
 62
0
 70
0
 66
1
 10
0.0
 20
0.0
 30
0.0
  0
VERTEX
  8
0
 10
16.0012825258
 20
26.11
 30
0.0
  0
VERTEX
  8
0
 10
16.0012825258
 20
32.1
 30
0.0
  0
VERTEX
  8
0
 10
21.1974349485
 20
29.1
 30
0.0
  0
VERTEX
  8
0
 10
16.0012825258
 20
26.1
 30
0.0
  0
SEQEND
  8
0
  0
POLYLINE
  8
0
 62
0
 70
0
 66
1
 10
0.0
 20
0.0
 30
0.0
  0
VERTEX
  8
0
 10
4.26824680357
 20
103.71
 30
0.0
  0
VERTEX
  8
0
 10
4.26824680357
 20
109.7
 30
0.0
  0
VERTEX
  8
0
 10
9.46439922628
 20
106.7
 30
0.0
  0
VERTEX
  8
0
 10
4.26824680357
 20
103.7
 30
0.0
  0
SEQEND
  8
0
  0
POLYLINE
  8
0
 62
0
 70
0
 66
1
 10
0.0
 20
0.0
 30
0.0
  0
VERTEX
  8
0
 10
16.0012825258
 20
6.71
 30
0.0
  0
VERTEX
  8
0
 10
16.0012825258
 20
12.7
 30
0.0
  0
VERTEX
  8
0
 10
21.1974349485
 20
9.7
 30
0.0
  0
VERTEX
  8
0
 10
16.0012825258
 20
6.7
 30
0.0
  0
SEQEND
  8
0
  0
POLYLINE
  8
0
 62
0
 70
0
 66
1
 10
0.0
 20
0.0
 30
0.0
  0
VERTEX
  8
0
 10
25.0647889186
 20
113.41
 30
0.0
  0
VERTEX
  8
0
 10
25.0647889186
 20
119.4
 30
0.0
  0
VERTEX
  8
0
 10
19.8686364959
 20
116.4
 30
0.0
  0
VERTEX
  8
0
 10
25.0647889186
 20
113.4
 30
0.0
  0
SEQEND
  8
0
  0
POLYLINE
  8
0
 62
0
 70
0
 66
1
 10
0.0
 20
0.0
 30
0.0
  0
VERTEX
  8
0
 10
13.3317531964
 20
35.81
 30
0.0
  0
VERTEX
  8
0
 10
13.3317531964
 20
41.8
 30
0.0
  0
VERTEX
  8
0
 10
8.13560077372
 20
38.8
 30
0.0
  0
VERTEX
  8
0
 10
13.3317531964
 20
35.8
 30
0.0
  0
SEQEND
  8
0
  0
POLYLINE
  8
0
 62
0
 70
0
 66
1
 10
0.0
 20
0.0
 30
0.0
  0
VERTEX
  8
0
 10
25.0647889186
 20
94.01
 30
0.0
  0
VERTEX
  8
0
 10
25.0647889186
 20
100.0
 30
0.0
  0
VERTEX
  8
0
 10
19.8686364959
 20
97.0
 30
0.0
  0
VERTEX
  8
0
 10
25.0647889186
 20
94.0
 30
0.0
  0
SEQEND
  8
0
  0
POLYLINE
  8
0
 62
0
 70
0
 66
1
 10
0.0
 20
0.0
 30
0.0
  0
VERTEX
  8
0
 10
27.734318248
 20
26.11
 30
0.0
  0
VERTEX
  8
0
 10
27.734318248
 20
32.1
 30
0.0
  0
VERTEX
  8
0
 10
32.9304706707
 20
29.1
 30
0.0
  0
VERTEX
  8
0
 10
27.734318248
 20
26.1
 30
0.0
  0
SEQEND
  8
0
  0
POLYLINE
  8
0
 62
0
 70
0
 66
1
 10
0.0
 20
0.0
 30
0.0
  0
VERTEX
  8
0
 10
25.0647889186
 20
55.21
 30
0.0
  0
VERTEX
  8
0
 10
25.0647889186
 20
61.2
 30
0.0
  0
VERTEX
  8
0
 10
19.8686364959
 20
58.2
 30
0.0
  0
VERTEX
  8
0
 10
25.0647889186
 20
55.2
 30
0.0
  0
SEQEND
  8
0
  0
POLYLINE
  8
0
 62
0
 70
0
 66
1
 10
0.0
 20
0.0
 30
0.0
  0
VERTEX
  8
0
 10
16.0012825258
 20
103.71
 30
0.0
  0
VERTEX
  8
0
 10
16.0012825258
 20
109.7
 30
0.0
  0
VERTEX
  8
0
 10
21.1974349485
 20
106.7
 30
0.0
  0
VERTEX
  8
0
 10
16.0012825258
 20
103.7
 30
0.0
  0
SEQEND
  8
0
  0
POLYLINE
  8
0
 62
0
 70
0
 66
1
 10
0.0
 20
0.0
 30
0.0
  0
VERTEX
  8
0
 10
13.3317531964
 20
55.21
 30
0.0
  0
VERTEX
  8
0
 10
13.3317531964
 20
61.2
 30
0.0
  0
VERTEX
  8
0
 10
8.13560077372
 20
58.2
 30
0.0
  0
VERTEX
  8
0
 10
13.3317531964
 20
55.2
 30
0.0
  0
SEQEND
  8
0
  0
POLYLINE
  8
0
 62
0
 70
0
 66
1
 10
0.0
 20
0.0
 30
0.0
  0
VERTEX
  8
0
 10
13.3317531964
 20
113.41
 30
0.0
  0
VERTEX
  8
0
 10
13.3317531964
 20
119.4
 30
0.0
  0
VERTEX
  8
0
 10
8.13560077372
 20
116.4
 30
0.0
  0
VERTEX
  8
0
 10
13.3317531964
 20
113.4
 30
0.0
  0
SEQEND
  8
0
  0
POLYLINE
  8
0
 62
0
 70
0
 66
1
 10
0.0
 20
0.0
 30
0.0
  0
VERTEX
  8
0
 10
17.6
 20
3.14635329744
 30
0.0
  0
VERTEX
  8
0
 10
18.4660254038
 20
3.65635329744
 30
0.0
  0
VERTEX
  8
0
 10
17.6
 20
3.15635329744
 30
0.0
  0
VERTEX
  8
0
 10
11.7330357222
 20
6.54364670256
 30
0.0
  0
VERTEX
  8
0
 10
10.8670103184
 20
6.04364670256
 30
0.0
  0
VERTEX
  8
0
 10
11.7330357222
 20
6.55364670256
 30
0.0
  0
VERTEX
  8
0
 10
11.7330357222
 20
12.8463532974
 30
0.0
  0
VERTEX
  8
0
 10
10.8670103184
 20
13.3563532974
 30
0.0
  0
VERTEX
  8
0
 10
11.7330357222
 20
12.8563532974
 30
0.0
  0
VERTEX
  8
0
 10
17.6
 20
16.2436467026
 30
0.0
  0
VERTEX
  8
0
 10
18.4660254038
 20
15.7436467026
 30
0.0
  0
VERTEX
  8
0
 10
17.6
 20
16.2536467026
 30
0.0
  0
VERTEX
  8
0
 10
17.6
 20
22.5463532974
 30
0.0
  0
VERTEX
  8
0
 10
18.4660254038
 20
23.0563532974
 30
0.0
  0
VERTEX
  8
0
 10
17.6
 20
22.5563532974
 30
0.0
  0
VERTEX
  8
0
 10
11.7330357222
 20
25.9436467026
 30
0.0
  0
VERTEX
  8
0
 10
10.8670103184
 20
25.4436467026
 30
0.0
  0
VERTEX
  8
0
 10
11.7330357222
 20
25.9536467026
 30
0.0
  0
VERTEX
  8
0
 10
11.7330357222
 20
32.2463532974
 30
0.0
  0
VERTEX
  8
0
 10
10.8670103184
 20
32.7563532974
 30
0.0
  0
VERTEX
  8
0
 10
11.7330357222
 20
32.2563532974
 30
0.0
  0
VERTEX
  8
0
 10
17.6
 20
35.6436467026
 30
0.0
  0
VERTEX
  8
0
 10
18.4660254038
 20
35.1436467026
 30
0.0
  0
VERTEX
  8
0
 10
17.6
 20
35.6536467026
 30
0.0
  0
VERTEX
  8
0
 10
17.6
 20
41.9463532974
 30
0.0
  0
VERTEX
  8
0
 10
18.4660254038
 20
42.4563532974
 30
0.0
  0
VERTEX
  8
0
 10
17.6
 20
41.9563532974
 30
0.0
  0
VERTEX
  8
0
 10
11.7330357222
 20
45.3436467026
 30
0.0
  0
VERTEX
  8
0
 10
10.8670103184
 20
44.8436467026
 30
0.0
  0
VERTEX
  8
0
 10
11.7330357222
 20
45.3536467026
 30
0.0
  0
VERTEX
  8
0
 10
11.7330357222
 20
51.6463532974
 30
0.0
  0
VERTEX
  8
0
 10
10.8670103184
 20
52.1563532974
 30
0.0
  0
VERTEX
  8
0
 10
11.7330357222
 20
51.6563532974
 30
0.0
  0
VERTEX
  8
0
 10
17.6
 20
55.0436467026
 30
0.0
  0
VERTEX
  8
0
 10
18.4660254038
 20
54.5436467026
 30
0.0
  0
VERTEX
  8
0
 10
17.6
 20
55.0536467026
 30
0.0
  0
VERTEX
  8
0
 10
17.6
 20
61.3463532974
 30
0.0
  0
VERTEX
  8
0
 10
18.4660254038
 20
61.8563532974
 30
0.0
  0
VERTEX
  8
0
 10
17.6
 20
61.3563532974
 30
0.0
  0
VERTEX
  8
0
 10
11.7330357222
 20
64.7436467026
 30
0.0
  0
VERTEX
  8
0
 10
10.8670103184
 20
64.2436467026
 30
0.0
  0
VERTEX
  8
0
 10
11.7330357222
 20
64.7536467026
 30
0.0
  0
VERTEX
  8
0
 10
11.7330357222
 20
71.0463532974
 30
0.0
  0
VERTEX
  8
0
 10
10.8670103184
 20
71.5563532974
 30
0.0
  0
VERTEX
  8
0
 10
11.7330357222
 20
71.0563532974
 30
0.0
  0
VERTEX
  8
0
 10
17.6
 20
74.4436467026
 30
0.0
  0
VERTEX
  8
0
 10
18.4660254038
 20
73.9436467026
 30
0.0
  0
VERTEX
  8
0
 10
17.6
 20
74.4536467026
 30
0.0
  0
VERTEX
  8
0
 10
17.6
 20
80.7463532974
 30
0.0
  0
VERTEX
  8
0
 10
18.4660254038
 20
81.2563532974
 30
0.0
  0
VERTEX
  8
0
 10
17.6
 20
80.7563532974
 30
0.0
  0
VERTEX
  8
0
 10
11.7330357222
 20
84.1436467026
 30
0.0
  0
VERTEX
  8
0
 10
10.8670103184
 20
83.6436467026
 30
0.0
  0
VERTEX
  8
0
 10
11.7330357222
 20
84.1536467026
 30
0.0
  0
VERTEX
  8
0
 10
11.7330357222
 20
90.4463532974
 30
0.0
  0
VERTEX
  8
0
 10
10.8670103184
 20
90.9563532974
 30
0.0
  0
VERTEX
  8
0
 10
11.7330357222
 20
90.4563532974
 30
0.0
  0
VERTEX
  8
0
 10
17.6
 20
93.8436467026
 30
0.0
  0
VERTEX
  8
0
 10
18.4660254038
 20
93.3436467026
 30
0.0
  0
VERTEX
  8
0
 10
17.6
 20
93.8536467026
 30
0.0
  0
VERTEX
  8
0
 10
17.6
 20
100.146353297
 30
0.0
  0
VERTEX
  8
0
 10
18.4660254038
 20
100.656353297
 30
0.0
  0
VERTEX
  8
0
 10
17.6
 20
100.156353297
 30
0.0
  0
VERTEX
  8
0
 10
11.7330357222
 20
103.543646703
 30
0.0
  0
VERTEX
  8
0
 10
10.8670103184
 20
103.043646703
 30
0.0
  0
VERTEX
  8
0
 10
11.7330357222
 20
103.553646703
 30
0.0
  0
VERTEX
  8
0
 10
11.7330357222
 20
109.846353297
 30
0.0
  0
VERTEX
  8
0
 10
10.8670103184
 20
110.356353297
 30
0.0
  0
VERTEX
  8
0
 10
11.7330357222
 20
109.856353297
 30
0.0
  0
VERTEX
  8
0
 10
17.6
 20
113.243646703
 30
0.0
  0
VERTEX
  8
0
 10
18.4660254038
 20
112.743646703
 30
0.0
  0
VERTEX
  8
0
 10
17.6
 20
113.253646703
 30
0.0
  0
VERTEX
  8
0
 10
17.6
 20
119.546353297
 30
0.0
  0
VERTEX
  8
0
 10
18.4660254038
 20
120.056353297
 30
0.0
  0
VERTEX
  8
0
 10
17.6
 20
119.556353297
 30
0.0
  0
VERTEX
  8
0
 10
11.7330357222
 20
122.943646703
 30
0.0
  0
VERTEX
  8
0
 10
10.8670103184
 20
122.443646703
 30
0.0
  0
VERTEX
  8
0
 10
11.7330357222
 20
122.953646703
 30
0.0
  0
VERTEX
  8
0
 10
11.7330357222
 20
129.246353297
 30
0.0
  0
VERTEX
  8
0
 10
10.8670103184
 20
129.756353297
 30
0.0
  0
VERTEX
  8
0
 10
11.7330357222
 20
129.256353297
 30
0.0
  0
VERTEX
  8
0
 10
17.6
 20
132.643646703
 30
0.0
  0
VERTEX
  8
0
 10
18.4660254038
 20
132.143646703
 30
0.0
  0
VERTEX
  8
0
 10
17.6
 20
132.653646703
 30
0.0
  0
VERTEX
  8
0
 10
17.6
 20
138.946353297
 30
0.0
  0
VERTEX
  8
0
 10
18.4660254038
 20
139.456353297
 30
0.0
  0
VERTEX
  8
0
 10
17.6
 20
138.956353297
 30
0.0
  0
VERTEX
  8
0
 10
11.7330357222
 20
142.343646703
 30
0.0
  0
VERTEX
  8
0
 10
10.8670103184
 20
141.843646703
 30
0.0
  0
VERTEX
  8
0
 10
11.7330357222
 20
142.353646703
 30
0.0
  0
VERTEX
  8
0
 10
11.7330357222
 20
148.656353297
 30
0.0
  0
VERTEX
  8
0
 10
17.6
 20
152.043646703
 30
0.0
  0
VERTEX
  8
0
 10
18.4660254038
 20
151.543646703
 30
0.0
  0
VERTEX
  8
0
 10
17.6
 20
152.053646703
 30
0.0
  0
VERTEX
  8
0
 10
17.6
 20
155.19
 30
0.0
  0
VERTEX
  8
0
 10
17.1669872981
 20
155.2
 30
0.0
  0
VERTEX
  8
0
 10
17.6
 20
155.2
 30
0.0
  0
VERTEX
  8
0
 10
19.8686364959
 20
155.2
 30
0.0
  0
VERTEX
  8
0
 10
25.0647889186
 20
152.2
 30
0.0
  0
VERTEX
  8
0
 10
25.0647889186
 20
155.19
 30
0.0
  0
VERTEX
  8
0
 10
25.4978016205
 20
155.2
 30
0.0
  0
VERTEX
  8
0
 10
25.0647889186
 20
155.2
 30
0.0
  0
VERTEX
  8
0
 10
25.0647889186
 20
180.2
 30
0.0
  0
VERTEX
  8
0
 10
29.3330357222
 20
180.2
 30
0.0
  0
VERTEX
  8
0
 10
29.3330357222
 20
157.7
 30
0.0
  0
SEQEND
  8
0
  0
POLYLINE
  8
0
 62
0
 70
0
 66
1
 10
0.0
 20
0.0
 30
0.0
  0
VERTEX
  8
0
 10
16.0012825258
 20
84.31
 30
0.0
  0
VERTEX
  8
0
 10
16.0012825258
 20
90.3
 30
0.0
  0
VERTEX
  8
0
 10
21.1974349485
 20
87.3
 30
0.0
  0
VERTEX
  8
0
 10
16.0012825258
 20
84.3
 30
0.0
  0
SEQEND
  8
0
  0
POLYLINE
  8
0
 62
0
 70
0
 66
1
 10
0.0
 20
0.0
 30
0.0
  0
VERTEX
  8
0
 10
13.3317531964
 20
94.01
 30
0.0
  0
VERTEX
  8
0
 10
13.3317531964
 20
100.0
 30
0.0
  0
VERTEX
  8
0
 10
8.13560077372
 20
97.0
 30
0.0
  0
VERTEX
  8
0
 10
13.3317531964
 20
94.0
 30
0.0
  0
SEQEND
  8
0
  0
POLYLINE
  8
0
 62
0
 70
0
 66
1
 10
0.0
 20
0.0
 30
0.0
  0
VERTEX
  8
0
 10
4.26824680357
 20
142.51
 30
0.0
  0
VERTEX
  8
0
 10
4.26824680357
 20
148.5
 30
0.0
  0
VERTEX
  8
0
 10
9.46439922628
 20
145.5
 30
0.0
  0
VERTEX
  8
0
 10
4.26824680357
 20
142.5
 30
0.0
  0
SEQEND
  8
0
  0
POLYLINE
  8
0
 62
0
 70
0
 66
1
 10
0.0
 20
0.0
 30
0.0
  0
VERTEX
  8
0
 10
25.0647889186
 20
16.41
 30
0.0
  0
VERTEX
  8
0
 10
25.0647889186
 20
22.4
 30
0.0
  0
VERTEX
  8
0
 10
19.8686364959
 20
19.4
 30
0.0
  0
VERTEX
  8
0
 10
25.0647889186
 20
16.4
 30
0.0
  0
SEQEND
  8
0
  0
POLYLINE
  8
0
 62
0
 70
0
 66
1
 10
0.0
 20
0.0
 30
0.0
  0
VERTEX
  8
0
 10
16.0012825258
 20
45.51
 30
0.0
  0
VERTEX
  8
0
 10
16.0012825258
 20
51.5
 30
0.0
  0
VERTEX
  8
0
 10
21.1974349485
 20
48.5
 30
0.0
  0
VERTEX
  8
0
 10
16.0012825258
 20
45.5
 30
0.0
  0
SEQEND
  8
0
  0
POLYLINE
  8
0
 62
0
 70
0
 66
1
 10
0.0
 20
0.0
 30
0.0
  0
VERTEX
  8
0
 10
36.7978246408
 20
35.81
 30
0.0
  0
VERTEX
  8
0
 10
36.7978246408
 20
41.8
 30
0.0
  0
VERTEX
  8
0
 10
31.6016722181
 20
38.8
 30
0.0
  0
VERTEX
  8
0
 10
36.7978246408
 20
35.8
 30
0.0
  0
SEQEND
  8
0
  0
POLYLINE
  8
0
 62
0
 70
0
 66
1
 10
0.0
 20
0.0
 30
0.0
  0
VERTEX
  8
0
 10
36.7978246408
 20
55.21
 30
0.0
  0
VERTEX
  8
0
 10
36.7978246408
 20
61.2
 30
0.0
  0
VERTEX
  8
0
 10
31.6016722181
 20
58.2
 30
0.0
  0
VERTEX
  8
0
 10
36.7978246408
 20
55.2
 30
0.0
  0
SEQEND
  8
0
  0
POLYLINE
  8
0
 62
0
 70
0
 66
1
 10
0.0
 20
0.0
 30
0.0
  0
VERTEX
  8
0
 10
27.734318248
 20
64.91
 30
0.0
  0
VERTEX
  8
0
 10
27.734318248
 20
70.9
 30
0.0
  0
VERTEX
  8
0
 10
32.9304706707
 20
67.9
 30
0.0
  0
VERTEX
  8
0
 10
27.734318248
 20
64.9
 30
0.0
  0
SEQEND
  8
0
  0
POLYLINE
  8
0
 62
0
 70
0
 66
1
 10
0.0
 20
0.0
 30
0.0
  0
VERTEX
  8
0
 10
16.0012825258
 20
64.91
 30
0.0
  0
VERTEX
  8
0
 10
16.0012825258
 20
70.9
 30
0.0
  0
VERTEX
  8
0
 10
21.1974349485
 20
67.9
 30
0.0
  0
VERTEX
  8
0
 10
16.0012825258
 20
64.9
 30
0.0
  0
SEQEND
  8
0
  0
POLYLINE
  8
0
 62
0
 70
0
 66
1
 10
0.0
 20
0.0
 30
0.0
  0
VERTEX
  8
0
 10
25.0647889186
 20
74.61
 30
0.0
  0
VERTEX
  8
0
 10
25.0647889186
 20
80.6
 30
0.0
  0
VERTEX
  8
0
 10
19.8686364959
 20
77.6
 30
0.0
  0
VERTEX
  8
0
 10
25.0647889186
 20
74.6
 30
0.0
  0
SEQEND
  8
0
  0
POLYLINE
  8
0
 62
0
 70
0
 66
1
 10
0.0
 20
0.0
 30
0.0
  0
VERTEX
  8
0
 10
16.0012825258
 20
123.11
 30
0.0
  0
VERTEX
  8
0
 10
16.0012825258
 20
129.1
 30
0.0
  0
VERTEX
  8
0
 10
21.1974349485
 20
126.1
 30
0.0
  0
VERTEX
  8
0
 10
16.0012825258
 20
123.1
 30
0.0
  0
SEQEND
  8
0
  0
POLYLINE
  8
0
 62
0
 70
0
 66
1
 10
0.0
 20
0.0
 30
0.0
  0
VERTEX
  8
0
 10
16.0012825258
 20
142.51
 30
0.0
  0
VERTEX
  8
0
 10
16.0012825258
 20
148.5
 30
0.0
  0
VERTEX
  8
0
 10
21.1974349485
 20
145.5
 30
0.0
  0
VERTEX
  8
0
 10
16.0012825258
 20
142.5
 30
0.0
  0
SEQEND
  8
0
  0
POLYLINE
  8
0
 62
0
 70
0
 66
1
 10
0.0
 20
0.0
 30
0.0
  0
VERTEX
  8
0
 10
29.3330357222
 20
3.14635329744
 30
0.0
  0
VERTEX
  8
0
 10
30.199061126
 20
3.65635329744
 30
0.0
  0
VERTEX
  8
0
 10
29.3330357222
 20
3.15635329744
 30
0.0
  0
VERTEX
  8
0
 10
23.4660714444
 20
6.54364670256
 30
0.0
  0
VERTEX
  8
0
 10
22.6000460406
 20
6.04364670256
 30
0.0
  0
VERTEX
  8
0
 10
23.4660714444
 20
6.55364670256
 30
0.0
  0
VERTEX
  8
0
 10
23.4660714444
 20
12.8463532974
 30
0.0
  0
VERTEX
  8
0
 10
22.6000460406
 20
13.3563532974
 30
0.0
  0
VERTEX
  8
0
 10
23.4660714444
 20
12.8563532974
 30
0.0
  0
VERTEX
  8
0
 10
29.3330357222
 20
16.2436467026
 30
0.0
  0
VERTEX
  8
0
 10
30.199061126
 20
15.7436467026
 30
0.0
  0
VERTEX
  8
0
 10
29.3330357222
 20
16.2536467026
 30
0.0
  0
VERTEX
  8
0
 10
29.3330357222
 20
22.5463532974
 30
0.0
  0
VERTEX
  8
0
 10
30.199061126
 20
23.0563532974
 30
0.0
  0
VERTEX
  8
0
 10
29.3330357222
 20
22.5563532974
 30
0.0
  0
VERTEX
  8
0
 10
23.4660714444
 20
25.9436467026
 30
0.0
  0
VERTEX
  8
0
 10
22.6000460406
 20
25.4436467026
 30
0.0
  0
VERTEX
  8
0
 10
23.4660714444
 20
25.9536467026
 30
0.0
  0
VERTEX
  8
0
 10
23.4660714444
 20
32.2463532974
 30
0.0
  0
VERTEX
  8
0
 10
22.6000460406
 20
32.7563532974
 30
0.0
  0
VERTEX
  8
0
 10
23.4660714444
 20
32.2563532974
 30
0.0
  0
VERTEX
  8
0
 10
29.3330357222
 20
35.6436467026
 30
0.0
  0
VERTEX
  8
0
 10
30.199061126
 20
35.1436467026
 30
0.0
  0
VERTEX
  8
0
 10
29.3330357222
 20
35.6536467026
 30
0.0
  0
VERTEX
  8
0
 10
29.3330357222
 20
41.9463532974
 30
0.0
  0
VERTEX
  8
0
 10
30.199061126
 20
42.4563532974
 30
0.0
  0
VERTEX
  8
0
 10
29.3330357222
 20
41.9563532974
 30
0.0
  0
VERTEX
  8
0
 10
23.4660714444
 20
45.3436467026
 30
0.0
  0
VERTEX
  8
0
 10
22.6000460406
 20
44.8436467026
 30
0.0
  0
VERTEX
  8
0
 10
23.4660714444
 20
45.3536467026
 30
0.0
  0
VERTEX
  8
0
 10
23.4660714444
 20
51.6463532974
 30
0.0
  0
VERTEX
  8
0
 10
22.6000460406
 20
52.1563532974
 30
0.0
  0
VERTEX
  8
0
 10
23.4660714444
 20
51.6563532974
 30
0.0
  0
VERTEX
  8
0
 10
29.3330357222
 20
55.0436467026
 30
0.0
  0
VERTEX
  8
0
 10
30.199061126
 20
54.5436467026
 30
0.0
  0
VERTEX
  8
0
 10
29.3330357222
 20
55.0536467026
 30
0.0
  0
VERTEX
  8
0
 10
29.3330357222
 20
61.3463532974
 30
0.0
  0
VERTEX
  8
0
 10
30.199061126
 20
61.8563532974
 30
0.0
  0
VERTEX
  8
0
 10
29.3330357222
 20
61.3563532974
 30
0.0
  0
VERTEX
  8
0
 10
23.4660714444
 20
64.7436467026
 30
0.0
  0
VERTEX
  8
0
 10
22.6000460406
 20
64.2436467026
 30
0.0
  0
VERTEX
  8
0
 10
23.4660714444
 20
64.7536467026
 30
0.0
  0
VERTEX
  8
0
 10
23.4660714444
 20
71.0463532974
 30
0.0
  0
VERTEX
  8
0
 10
22.6000460406
 20
71.5563532974
 30
0.0
  0
VERTEX
  8
0
 10
23.4660714444
 20
71.0563532974
 30
0.0
  0
VERTEX
  8
0
 10
29.3330357222
 20
74.4436467026
 30
0.0
  0
VERTEX
  8
0
 10
30.199061126
 20
73.9436467026
 30
0.0
  0
VERTEX
  8
0
 10
29.3330357222
 20
74.4536467026
 30
0.0
  0
VERTEX
  8
0
 10
29.3330357222
 20
80.7463532974
 30
0.0
  0
VERTEX
  8
0
 10
30.199061126
 20
81.2563532974
 30
0.0
  0
VERTEX
  8
0
 10
29.3330357222
 20
80.7563532974
 30
0.0
  0
VERTEX
  8
0
 10
23.4660714444
 20
84.1436467026
 30
0.0
  0
VERTEX
  8
0
 10
22.6000460406
 20
83.6436467026
 30
0.0
  0
VERTEX
  8
0
 10
23.4660714444
 20
84.1536467026
 30
0.0
  0
VERTEX
  8
0
 10
23.4660714444
 20
90.4463532974
 30
0.0
  0
VERTEX
  8
0
 10
22.6000460406
 20
90.9563532974
 30
0.0
  0
VERTEX
  8
0
 10
23.4660714444
 20
90.4563532974
 30
0.0
  0
VERTEX
  8
0
 10
29.3330357222
 20
93.8436467026
 30
0.0
  0
VERTEX
  8
0
 10
30.199061126
 20
93.3436467026
 30
0.0
  0
VERTEX
  8
0
 10
29.3330357222
 20
93.8536467026
 30
0.0
  0
VERTEX
  8
0
 10
29.3330357222
 20
100.146353297
 30
0.0
  0
VERTEX
  8
0
 10
30.199061126
 20
100.656353297
 30
0.0
  0
VERTEX
  8
0
 10
29.3330357222
 20
100.156353297
 30
0.0
  0
VERTEX
  8
0
 10
23.4660714444
 20
103.543646703
 30
0.0
  0
VERTEX
  8
0
 10
22.6000460406
 20
103.043646703
 30
0.0
  0
VERTEX
  8
0
 10
23.4660714444
 20
103.553646703
 30
0.0
  0
VERTEX
  8
0
 10
23.4660714444
 20
109.846353297
 30
0.0
  0
VERTEX
  8
0
 10
22.6000460406
 20
110.356353297
 30
0.0
  0
VERTEX
  8
0
 10
23.4660714444
 20
109.856353297
 30
0.0
  0
VERTEX
  8
0
 10
29.3330357222
 20
113.243646703
 30
0.0
  0
VERTEX
  8
0
 10
30.199061126
 20
112.743646703
 30
0.0
  0
VERTEX
  8
0
 10
29.3330357222
 20
113.253646703
 30
0.0
  0
VERTEX
  8
0
 10
29.3330357222
 20
119.546353297
 30
0.0
  0
VERTEX
  8
0
 10
30.199061126
 20
120.056353297
 30
0.0
  0
VERTEX
  8
0
 10
29.3330357222
 20
119.556353297
 30
0.0
  0
VERTEX
  8
0
 10
23.4660714444
 20
122.943646703
 30
0.0
  0
VERTEX
  8
0
 10
22.6000460406
 20
122.443646703
 30
0.0
  0
VERTEX
  8
0
 10
23.4660714444
 20
122.953646703
 30
0.0
  0
VERTEX
  8
0
 10
23.4660714444
 20
129.246353297
 30
0.0
  0
VERTEX
  8
0
 10
22.6000460406
 20
129.756353297
 30
0.0
  0
VERTEX
  8
0
 10
23.4660714444
 20
129.256353297
 30
0.0
  0
VERTEX
  8
0
 10
29.3330357222
 20
132.643646703
 30
0.0
  0
VERTEX
  8
0
 10
30.199061126
 20
132.143646703
 30
0.0
  0
VERTEX
  8
0
 10
29.3330357222
 20
132.653646703
 30
0.0
  0
VERTEX
  8
0
 10
29.3330357222
 20
138.946353297
 30
0.0
  0
VERTEX
  8
0
 10
30.199061126
 20
139.456353297
 30
0.0
  0
VERTEX
  8
0
 10
29.3330357222
 20
138.956353297
 30
0.0
  0
VERTEX
  8
0
 10
23.4660714444
 20
142.343646703
 30
0.0
  0
VERTEX
  8
0
 10
22.6000460406
 20
141.843646703
 30
0.0
  0
VERTEX
  8
0
 10
23.4660714444
 20
142.353646703
 30
0.0
  0
VERTEX
  8
0
 10
23.4660714444
 20
148.656353297
 30
0.0
  0
VERTEX
  8
0
 10
29.3330357222
 20
152.043646703
 30
0.0
  0
VERTEX
  8
0
 10
30.199061126
 20
151.543646703
 30
0.0
  0
VERTEX
  8
0
 10
29.3330357222
 20
152.053646703
 30
0.0
  0
VERTEX
  8
0
 10
29.3330357222
 20
155.19
 30
0.0
  0
VERTEX
  8
0
 10
28.9000230203
 20
155.2
 30
0.0
  0
VERTEX
  8
0
 10
29.3330357222
 20
155.2
 30
0.0
  0
VERTEX
  8
0
 10
31.6016722181
 20
155.2
 30
0.0
  0
VERTEX
  8
0
 10
36.7978246408
 20
152.2
 30
0.0
  0
VERTEX
  8
0
 10
36.7978246408
 20
155.19
 30
0.0
  0
VERTEX
  8
0
 10
37.2308373427
 20
155.2
 30
0.0
  0
VERTEX
  8
0
 10
36.7978246408
 20
155.2
 30
0.0
  0
VERTEX
  8
0
 10
36.7978246408
 20
180.2
 30
0.0
  0
VERTEX
  8
0
 10
41.0660714444
 20
180.2
 30
0.0
  0
VERTEX
  8
0
 10
41.0660714444
 20
157.7
 30
0.0
  0
SEQEND
  8
0
  0
POLYLINE
  8
0
 62
0
 70
0
 66
1
 10
0.0
 20
0.0
 30
0.0
  0
VERTEX
  8
0
 10
25.0647889186
 20
132.81
 30
0.0
  0
VERTEX
  8
0
 10
25.0647889186
 20
138.8
 30
0.0
  0
VERTEX
  8
0
 10
19.8686364959
 20
135.8
 30
0.0
  0
VERTEX
  8
0
 10
25.0647889186
 20
132.8
 30
0.0
  0
SEQEND
  8
0
  0
POLYLINE
  8
0
 62
0
 70
0
 66
1
 10
0.0
 20
0.0
 30
0.0
  0
VERTEX
  8
0
 10
27.734318248
 20
6.71
 30
0.0
  0
VERTEX
  8
0
 10
27.734318248
 20
12.7
 30
0.0
  0
VERTEX
  8
0
 10
32.9304706707
 20
9.7
 30
0.0
  0
VERTEX
  8
0
 10
27.734318248
 20
6.7
 30
0.0
  0
SEQEND
  8
0
  0
POLYLINE
  8
0
 62
0
 70
0
 66
1
 10
0.0
 20
0.0
 30
0.0
  0
VERTEX
  8
0
 10
36.7978246408
 20
16.41
 30
0.0
  0
VERTEX
  8
0
 10
36.7978246408
 20
22.4
 30
0.0
  0
VERTEX
  8
0
 10
31.6016722181
 20
19.4
 30
0.0
  0
VERTEX
  8
0
 10
36.7978246408
 20
16.4
 30
0.0
  0
SEQEND
  8
0
  0
POLYLINE
  8
0
 62
0
 70
0
 66
1
 10
0.0
 20
0.0
 30
0.0
  0
VERTEX
  8
0
 10
27.734318248
 20
45.51
 30
0.0
  0
VERTEX
  8
0
 10
27.734318248
 20
51.5
 30
0.0
  0
VERTEX
  8
0
 10
32.9304706707
 20
48.5
 30
0.0
  0
VERTEX
  8
0
 10
27.734318248
 20
45.5
 30
0.0
  0
SEQEND
  8
0
  0
POLYLINE
  8
0
 62
0
 70
0
 66
1
 10
0.0
 20
0.0
 30
0.0
  0
VERTEX
  8
0
 10
36.7978246408
 20
74.61
 30
0.0
  0
VERTEX
  8
0
 10
36.7978246408
 20
80.6
 30
0.0
  0
VERTEX
  8
0
 10
31.6016722181
 20
77.6
 30
0.0
  0
VERTEX
  8
0
 10
36.7978246408
 20
74.6
 30
0.0
  0
SEQEND
  8
0
  0
POLYLINE
  8
0
 62
0
 70
0
 66
1
 10
0.0
 20
0.0
 30
0.0
  0
VERTEX
  8
0
 10
27.734318248
 20
84.31
 30
0.0
  0
VERTEX
  8
0
 10
27.734318248
 20
90.3
 30
0.0
  0
VERTEX
  8
0
 10
32.9304706707
 20
87.3
 30
0.0
  0
VERTEX
  8
0
 10
27.734318248
 20
84.3
 30
0.0
  0
SEQEND
  8
0
  0
POLYLINE
  8
0
 62
0
 70
0
 66
1
 10
0.0
 20
0.0
 30
0.0
  0
VERTEX
  8
0
 10
36.7978246408
 20
94.01
 30
0.0
  0
VERTEX
  8
0
 10
36.7978246408
 20
100.0
 30
0.0
  0
VERTEX
  8
0
 10
31.6016722181
 20
97.0
 30
0.0
  0
VERTEX
  8
0
 10
36.7978246408
 20
94.0
 30
0.0
  0
SEQEND
  8
0
  0
POLYLINE
  8
0
 62
0
 70
0
 66
1
 10
0.0
 20
0.0
 30
0.0
  0
VERTEX
  8
0
 10
27.734318248
 20
103.71
 30
0.0
  0
VERTEX
  8
0
 10
27.734318248
 20
109.7
 30
0.0
  0
VERTEX
  8
0
 10
32.9304706707
 20
106.7
 30
0.0
  0
VERTEX
  8
0
 10
27.734318248
 20
103.7
 30
0.0
  0
SEQEND
  8
0
  0
POLYLINE
  8
0
 62
0
 70
0
 66
1
 10
0.0
 20
0.0
 30
0.0
  0
VERTEX
  8
0
 10
36.7978246408
 20
113.41
 30
0.0
  0
VERTEX
  8
0
 10
36.7978246408
 20
119.4
 30
0.0
  0
VERTEX
  8
0
 10
31.6016722181
 20
116.4
 30
0.0
  0
VERTEX
  8
0
 10
36.7978246408
 20
113.4
 30
0.0
  0
SEQEND
  8
0
  0
POLYLINE
  8
0
 62
0
 70
0
 66
1
 10
0.0
 20
0.0
 30
0.0
  0
VERTEX
  8
0
 10
27.734318248
 20
123.11
 30
0.0
  0
VERTEX
  8
0
 10
27.734318248
 20
129.1
 30
0.0
  0
VERTEX
  8
0
 10
32.9304706707
 20
126.1
 30
0.0
  0
VERTEX
  8
0
 10
27.734318248
 20
123.1
 30
0.0
  0
SEQEND
  8
0
  0
POLYLINE
  8
0
 62
0
 70
0
 66
1
 10
0.0
 20
0.0
 30
0.0
  0
VERTEX
  8
0
 10
154.128181863
 20
132.81
 30
0.0
  0
VERTEX
  8
0
 10
154.128181863
 20
138.8
 30
0.0
  0
VERTEX
  8
0
 10
148.93202944
 20
135.8
 30
0.0
  0
VERTEX
  8
0
 10
154.128181863
 20
132.8
 30
0.0
  0
SEQEND
  8
0
  0
POLYLINE
  8
0
 62
0
 70
0
 66
1
 10
0.0
 20
0.0
 30
0.0
  0
VERTEX
  8
0
 10
156.797711192
 20
6.71
 30
0.0
  0
VERTEX
  8
0
 10
156.797711192
 20
12.7
 30
0.0
  0
VERTEX
  8
0
 10
161.993863615
 20
9.7
 30
0.0
  0
VERTEX
  8
0
 10
156.797711192
 20
6.7
 30
0.0
  0
SEQEND
  8
0
  0
POLYLINE
  8
0
 62
0
 70
0
 66
1
 10
0.0
 20
0.0
 30
0.0
  0
VERTEX
  8
0
 10
145.06467547
 20
45.51
 30
0.0
  0
VERTEX
  8
0
 10
145.06467547
 20
51.5
 30
0.0
  0
VERTEX
  8
0
 10
150.260827893
 20
48.5
 30
0.0
  0
VERTEX
  8
0
 10
145.06467547
 20
45.5
 30
0.0
  0
SEQEND
  8
0
  0
POLYLINE
  8
0
 62
0
 70
0
 66
1
 10
0.0
 20
0.0
 30
0.0
  0
VERTEX
  8
0
 10
133.331639748
 20
103.71
 30
0.0
  0
VERTEX
  8
0
 10
133.331639748
 20
109.7
 30
0.0
  0
VERTEX
  8
0
 10
138.52779217
 20
106.7
 30
0.0
  0
VERTEX
  8
0
 10
133.331639748
 20
103.7
 30
0.0
  0
SEQEND
  8
0
  0
POLYLINE
  8
0
 62
0
 70
0
 66
1
 10
0.0
 20
0.0
 30
0.0
  0
VERTEX
  8
0
 10
133.331639748
 20
142.51
 30
0.0
  0
VERTEX
  8
0
 10
133.331639748
 20
148.5
 30
0.0
  0
VERTEX
  8
0
 10
138.52779217
 20
145.5
 30
0.0
  0
VERTEX
  8
0
 10
133.331639748
 20
142.5
 30
0.0
  0
SEQEND
  8
0
  0
POLYLINE
  8
0
 62
0
 70
0
 66
1
 10
0.0
 20
0.0
 30
0.0
  0
VERTEX
  8
0
 10
146.663392944
 20
3.14635329744
 30
0.0
  0
VERTEX
  8
0
 10
147.529418348
 20
3.65635329744
 30
0.0
  0
VERTEX
  8
0
 10
146.663392944
 20
3.15635329744
 30
0.0
  0
VERTEX
  8
0
 10
140.796428666
 20
6.54364670256
 30
0.0
  0
VERTEX
  8
0
 10
139.930403263
 20
6.04364670256
 30
0.0
  0
VERTEX
  8
0
 10
140.796428666
 20
6.55364670256
 30
0.0
  0
VERTEX
  8
0
 10
140.796428666
 20
12.8463532974
 30
0.0
  0
VERTEX
  8
0
 10
139.930403263
 20
13.3563532974
 30
0.0
  0
VERTEX
  8
0
 10
140.796428666
 20
12.8563532974
 30
0.0
  0
VERTEX
  8
0
 10
146.663392944
 20
16.2436467026
 30
0.0
  0
VERTEX
  8
0
 10
147.529418348
 20
15.7436467026
 30
0.0
  0
VERTEX
  8
0
 10
146.663392944
 20
16.2536467026
 30
0.0
  0
VERTEX
  8
0
 10
146.663392944
 20
22.5463532974
 30
0.0
  0
VERTEX
  8
0
 10
147.529418348
 20
23.0563532974
 30
0.0
  0
VERTEX
  8
0
 10
146.663392944
 20
22.5563532974
 30
0.0
  0
VERTEX
  8
0
 10
140.796428666
 20
25.9436467026
 30
0.0
  0
VERTEX
  8
0
 10
139.930403263
 20
25.4436467026
 30
0.0
  0
VERTEX
  8
0
 10
140.796428666
 20
25.9536467026
 30
0.0
  0
VERTEX
  8
0
 10
140.796428666
 20
32.2463532974
 30
0.0
  0
VERTEX
  8
0
 10
139.930403263
 20
32.7563532974
 30
0.0
  0
VERTEX
  8
0
 10
140.796428666
 20
32.2563532974
 30
0.0
  0
VERTEX
  8
0
 10
146.663392944
 20
35.6436467026
 30
0.0
  0
VERTEX
  8
0
 10
147.529418348
 20
35.1436467026
 30
0.0
  0
VERTEX
  8
0
 10
146.663392944
 20
35.6536467026
 30
0.0
  0
VERTEX
  8
0
 10
146.663392944
 20
41.9463532974
 30
0.0
  0
VERTEX
  8
0
 10
147.529418348
 20
42.4563532974
 30
0.0
  0
VERTEX
  8
0
 10
146.663392944
 20
41.9563532974
 30
0.0
  0
VERTEX
  8
0
 10
140.796428666
 20
45.3436467026
 30
0.0
  0
VERTEX
  8
0
 10
139.930403263
 20
44.8436467026
 30
0.0
  0
VERTEX
  8
0
 10
140.796428666
 20
45.3536467026
 30
0.0
  0
VERTEX
  8
0
 10
140.796428666
 20
51.6463532974
 30
0.0
  0
VERTEX
  8
0
 10
139.930403263
 20
52.1563532974
 30
0.0
  0
VERTEX
  8
0
 10
140.796428666
 20
51.6563532974
 30
0.0
  0
VERTEX
  8
0
 10
146.663392944
 20
55.0436467026
 30
0.0
  0
VERTEX
  8
0
 10
147.529418348
 20
54.5436467026
 30
0.0
  0
VERTEX
  8
0
 10
146.663392944
 20
55.0536467026
 30
0.0
  0
VERTEX
  8
0
 10
146.663392944
 20
61.3463532974
 30
0.0
  0
VERTEX
  8
0
 10
147.529418348
 20
61.8563532974
 30
0.0
  0
VERTEX
  8
0
 10
146.663392944
 20
61.3563532974
 30
0.0
  0
VERTEX
  8
0
 10
140.796428666
 20
64.7436467026
 30
0.0
  0
VERTEX
  8
0
 10
139.930403263
 20
64.2436467026
 30
0.0
  0
VERTEX
  8
0
 10
140.796428666
 20
64.7536467026
 30
0.0
  0
VERTEX
  8
0
 10
140.796428666
 20
71.0463532974
 30
0.0
  0
VERTEX
  8
0
 10
139.930403263
 20
71.5563532974
 30
0.0
  0
VERTEX
  8
0
 10
140.796428666
 20
71.0563532974
 30
0.0
  0
VERTEX
  8
0
 10
146.663392944
 20
74.4436467026
 30
0.0
  0
VERTEX
  8
0
 10
147.529418348
 20
73.9436467026
 30
0.0
  0
VERTEX
  8
0
 10
146.663392944
 20
74.4536467026
 30
0.0
  0
VERTEX
  8
0
 10
146.663392944
 20
80.7463532974
 30
0.0
  0
VERTEX
  8
0
 10
147.529418348
 20
81.2563532974
 30
0.0
  0
VERTEX
  8
0
 10
146.663392944
 20
80.7563532974
 30
0.0
  0
VERTEX
  8
0
 10
140.796428666
 20
84.1436467026
 30
0.0
  0
VERTEX
  8
0
 10
139.930403263
 20
83.6436467026
 30
0.0
  0
VERTEX
  8
0
 10
140.796428666
 20
84.1536467026
 30
0.0
  0
VERTEX
  8
0
 10
140.796428666
 20
90.4463532974
 30
0.0
  0
VERTEX
  8
0
 10
139.930403263
 20
90.9563532974
 30
0.0
  0
VERTEX
  8
0
 10
140.796428666
 20
90.4563532974
 30
0.0
  0
VERTEX
  8
0
 10
146.663392944
 20
93.8436467026
 30
0.0
  0
VERTEX
  8
0
 10
147.529418348
 20
93.3436467026
 30
0.0
  0
VERTEX
  8
0
 10
146.663392944
 20
93.8536467026
 30
0.0
  0
VERTEX
  8
0
 10
146.663392944
 20
100.146353297
 30
0.0
  0
VERTEX
  8
0
 10
147.529418348
 20
100.656353297
 30
0.0
  0
VERTEX
  8
0
 10
146.663392944
 20
100.156353297
 30
0.0
  0
VERTEX
  8
0
 10
140.796428666
 20
103.543646703
 30
0.0
  0
VERTEX
  8
0
 10
139.930403263
 20
103.043646703
 30
0.0
  0
VERTEX
  8
0
 10
140.796428666
 20
103.553646703
 30
0.0
  0
VERTEX
  8
0
 10
140.796428666
 20
109.846353297
 30
0.0
  0
VERTEX
  8
0
 10
139.930403263
 20
110.356353297
 30
0.0
  0
VERTEX
  8
0
 10
140.796428666
 20
109.856353297
 30
0.0
  0
VERTEX
  8
0
 10
146.663392944
 20
113.243646703
 30
0.0
  0
VERTEX
  8
0
 10
147.529418348
 20
112.743646703
 30
0.0
  0
VERTEX
  8
0
 10
146.663392944
 20
113.253646703
 30
0.0
  0
VERTEX
  8
0
 10
146.663392944
 20
119.546353297
 30
0.0
  0
VERTEX
  8
0
 10
147.529418348
 20
120.056353297
 30
0.0
  0
VERTEX
  8
0
 10
146.663392944
 20
119.556353297
 30
0.0
  0
VERTEX
  8
0
 10
140.796428666
 20
122.943646703
 30
0.0
  0
VERTEX
  8
0
 10
139.930403263
 20
122.443646703
 30
0.0
  0
VERTEX
  8
0
 10
140.796428666
 20
122.953646703
 30
0.0
  0
VERTEX
  8
0
 10
140.796428666
 20
129.246353297
 30
0.0
  0
VERTEX
  8
0
 10
139.930403263
 20
129.756353297
 30
0.0
  0
VERTEX
  8
0
 10
140.796428666
 20
129.256353297
 30
0.0
  0
VERTEX
  8
0
 10
146.663392944
 20
132.643646703
 30
0.0
  0
VERTEX
  8
0
 10
147.529418348
 20
132.143646703
 30
0.0
  0
VERTEX
  8
0
 10
146.663392944
 20
132.653646703
 30
0.0
  0
VERTEX
  8
0
 10
146.663392944
 20
138.946353297
 30
0.0
  0
VERTEX
  8
0
 10
147.529418348
 20
139.456353297
 30
0.0
  0
VERTEX
  8
0
 10
146.663392944
 20
138.956353297
 30
0.0
  0
VERTEX
  8
0
 10
140.796428666
 20
142.343646703
 30
0.0
  0
VERTEX
  8
0
 10
139.930403263
 20
141.843646703
 30
0.0
  0
VERTEX
  8
0
 10
140.796428666
 20
142.353646703
 30
0.0
  0
VERTEX
  8
0
 10
140.796428666
 20
148.656353297
 30
0.0
  0
VERTEX
  8
0
 10
146.663392944
 20
152.043646703
 30
0.0
  0
VERTEX
  8
0
 10
147.529418348
 20
151.543646703
 30
0.0
  0
VERTEX
  8
0
 10
146.663392944
 20
152.053646703
 30
0.0
  0
VERTEX
  8
0
 10
146.663392944
 20
155.19
 30
0.0
  0
VERTEX
  8
0
 10
146.230380242
 20
155.2
 30
0.0
  0
VERTEX
  8
0
 10
146.663392944
 20
155.2
 30
0.0
  0
VERTEX
  8
0
 10
148.93202944
 20
155.2
 30
0.0
  0
VERTEX
  8
0
 10
154.128181863
 20
152.2
 30
0.0
  0
VERTEX
  8
0
 10
154.128181863
 20
155.19
 30
0.0
  0
VERTEX
  8
0
 10
154.561194565
 20
155.2
 30
0.0
  0
VERTEX
  8
0
 10
154.128181863
 20
155.2
 30
0.0
  0
VERTEX
  8
0
 10
154.128181863
 20
180.2
 30
0.0
  0
VERTEX
  8
0
 10
158.396428666
 20
180.2
 30
0.0
  0
VERTEX
  8
0
 10
158.396428666
 20
157.7
 30
0.0
  0
SEQEND
  8
0
  0
POLYLINE
  8
0
 62
0
 70
0
 66
1
 10
0.0
 20
0.0
 30
0.0
  0
VERTEX
  8
0
 10
154.128181863
 20
55.21
 30
0.0
  0
VERTEX
  8
0
 10
154.128181863
 20
61.2
 30
0.0
  0
VERTEX
  8
0
 10
148.93202944
 20
58.2
 30
0.0
  0
VERTEX
  8
0
 10
154.128181863
 20
55.2
 30
0.0
  0
SEQEND
  8
0
  0
POLYLINE
  8
0
 62
0
 70
0
 66
1
 10
0.0
 20
0.0
 30
0.0
  0
VERTEX
  8
0
 10
142.395146141
 20
132.81
 30
0.0
  0
VERTEX
  8
0
 10
142.395146141
 20
138.8
 30
0.0
  0
VERTEX
  8
0
 10
137.198993718
 20
135.8
 30
0.0
  0
VERTEX
  8
0
 10
142.395146141
 20
132.8
 30
0.0
  0
SEQEND
  8
0
  0
POLYLINE
  8
0
 62
0
 70
0
 66
1
 10
0.0
 20
0.0
 30
0.0
  0
VERTEX
  8
0
 10
145.06467547
 20
6.71
 30
0.0
  0
VERTEX
  8
0
 10
145.06467547
 20
12.7
 30
0.0
  0
VERTEX
  8
0
 10
150.260827893
 20
9.7
 30
0.0
  0
VERTEX
  8
0
 10
145.06467547
 20
6.7
 30
0.0
  0
SEQEND
  8
0
  0
POLYLINE
  8
0
 62
0
 70
0
 66
1
 10
0.0
 20
0.0
 30
0.0
  0
VERTEX
  8
0
 10
154.128181863
 20
16.41
 30
0.0
  0
VERTEX
  8
0
 10
154.128181863
 20
22.4
 30
0.0
  0
VERTEX
  8
0
 10
148.93202944
 20
19.4
 30
0.0
  0
VERTEX
  8
0
 10
154.128181863
 20
16.4
 30
0.0
  0
SEQEND
  8
0
  0
POLYLINE
  8
0
 62
0
 70
0
 66
1
 10
0.0
 20
0.0
 30
0.0
  0
VERTEX
  8
0
 10
145.06467547
 20
84.31
 30
0.0
  0
VERTEX
  8
0
 10
145.06467547
 20
90.3
 30
0.0
  0
VERTEX
  8
0
 10
150.260827893
 20
87.3
 30
0.0
  0
VERTEX
  8
0
 10
145.06467547
 20
84.3
 30
0.0
  0
SEQEND
  8
0
  0
POLYLINE
  8
0
 62
0
 70
0
 66
1
 10
0.0
 20
0.0
 30
0.0
  0
VERTEX
  8
0
 10
145.06467547
 20
103.71
 30
0.0
  0
VERTEX
  8
0
 10
145.06467547
 20
109.7
 30
0.0
  0
VERTEX
  8
0
 10
150.260827893
 20
106.7
 30
0.0
  0
VERTEX
  8
0
 10
145.06467547
 20
103.7
 30
0.0
  0
SEQEND
  8
0
  0
POLYLINE
  8
0
 62
0
 70
0
 66
1
 10
0.0
 20
0.0
 30
0.0
  0
VERTEX
  8
0
 10
145.06467547
 20
26.11
 30
0.0
  0
VERTEX
  8
0
 10
145.06467547
 20
32.1
 30
0.0
  0
VERTEX
  8
0
 10
150.260827893
 20
29.1
 30
0.0
  0
VERTEX
  8
0
 10
145.06467547
 20
26.1
 30
0.0
  0
SEQEND
  8
0
  0
POLYLINE
  8
0
 62
0
 70
0
 66
1
 10
0.0
 20
0.0
 30
0.0
  0
VERTEX
  8
0
 10
154.128181863
 20
74.61
 30
0.0
  0
VERTEX
  8
0
 10
154.128181863
 20
80.6
 30
0.0
  0
VERTEX
  8
0
 10
148.93202944
 20
77.6
 30
0.0
  0
VERTEX
  8
0
 10
154.128181863
 20
74.6
 30
0.0
  0
SEQEND
  8
0
  0
POLYLINE
  8
0
 62
0
 70
0
 66
1
 10
0.0
 20
0.0
 30
0.0
  0
VERTEX
  8
0
 10
145.06467547
 20
123.11
 30
0.0
  0
VERTEX
  8
0
 10
145.06467547
 20
129.1
 30
0.0
  0
VERTEX
  8
0
 10
150.260827893
 20
126.1
 30
0.0
  0
VERTEX
  8
0
 10
145.06467547
 20
123.1
 30
0.0
  0
SEQEND
  8
0
  0
POLYLINE
  8
0
 62
0
 70
0
 66
1
 10
0.0
 20
0.0
 30
0.0
  0
VERTEX
  8
0
 10
145.06467547
 20
142.51
 30
0.0
  0
VERTEX
  8
0
 10
145.06467547
 20
148.5
 30
0.0
  0
VERTEX
  8
0
 10
150.260827893
 20
145.5
 30
0.0
  0
VERTEX
  8
0
 10
145.06467547
 20
142.5
 30
0.0
  0
SEQEND
  8
0
  0
POLYLINE
  8
0
 62
0
 70
0
 66
1
 10
0.0
 20
0.0
 30
0.0
  0
VERTEX
  8
0
 10
154.128181863
 20
94.01
 30
0.0
  0
VERTEX
  8
0
 10
154.128181863
 20
100.0
 30
0.0
  0
VERTEX
  8
0
 10
148.93202944
 20
97.0
 30
0.0
  0
VERTEX
  8
0
 10
154.128181863
 20
94.0
 30
0.0
  0
SEQEND
  8
0
  0
POLYLINE
  8
0
 62
0
 70
0
 66
1
 10
0.0
 20
0.0
 30
0.0
  0
VERTEX
  8
0
 10
133.331639748
 20
123.11
 30
0.0
  0
VERTEX
  8
0
 10
133.331639748
 20
129.1
 30
0.0
  0
VERTEX
  8
0
 10
138.52779217
 20
126.1
 30
0.0
  0
VERTEX
  8
0
 10
133.331639748
 20
123.1
 30
0.0
  0
SEQEND
  8
0
  0
POLYLINE
  8
0
 62
0
 70
0
 66
1
 10
0.0
 20
0.0
 30
0.0
  0
VERTEX
  8
0
 10
142.395146141
 20
113.41
 30
0.0
  0
VERTEX
  8
0
 10
142.395146141
 20
119.4
 30
0.0
  0
VERTEX
  8
0
 10
137.198993718
 20
116.4
 30
0.0
  0
VERTEX
  8
0
 10
142.395146141
 20
113.4
 30
0.0
  0
SEQEND
  8
0
  0
POLYLINE
  8
0
 62
0
 70
0
 66
1
 10
0.0
 20
0.0
 30
0.0
  0
VERTEX
  8
0
 10
145.06467547
 20
64.91
 30
0.0
  0
VERTEX
  8
0
 10
145.06467547
 20
70.9
 30
0.0
  0
VERTEX
  8
0
 10
150.260827893
 20
67.9
 30
0.0
  0
VERTEX
  8
0
 10
145.06467547
 20
64.9
 30
0.0
  0
SEQEND
  8
0
  0
POLYLINE
  8
0
 62
0
 70
0
 66
1
 10
0.0
 20
0.0
 30
0.0
  0
VERTEX
  8
0
 10
154.128181863
 20
35.81
 30
0.0
  0
VERTEX
  8
0
 10
154.128181863
 20
41.8
 30
0.0
  0
VERTEX
  8
0
 10
148.93202944
 20
38.8
 30
0.0
  0
VERTEX
  8
0
 10
154.128181863
 20
35.8
 30
0.0
  0
SEQEND
  8
0
  0
POLYLINE
  8
0
 62
0
 70
0
 66
1
 10
0.0
 20
0.0
 30
0.0
  0
VERTEX
  8
0
 10
154.128181863
 20
113.41
 30
0.0
  0
VERTEX
  8
0
 10
154.128181863
 20
119.4
 30
0.0
  0
VERTEX
  8
0
 10
148.93202944
 20
116.4
 30
0.0
  0
VERTEX
  8
0
 10
154.128181863
 20
113.4
 30
0.0
  0
SEQEND
  8
0
  0
POLYLINE
  8
0
 62
0
 70
0
 66
1
 10
0.0
 20
0.0
 30
0.0
  0
VERTEX
  8
0
 10
158.396428666
 20
3.14635329744
 30
0.0
  0
VERTEX
  8
0
 10
159.26245407
 20
3.65635329744
 30
0.0
  0
VERTEX
  8
0
 10
158.396428666
 20
3.15635329744
 30
0.0
  0
VERTEX
  8
0
 10
152.529464389
 20
6.54364670256
 30
0.0
  0
VERTEX
  8
0
 10
151.663438985
 20
6.04364670256
 30
0.0
  0
VERTEX
  8
0
 10
152.529464389
 20
6.55364670256
 30
0.0
  0
VERTEX
  8
0
 10
152.529464389
 20
12.8463532974
 30
0.0
  0
VERTEX
  8
0
 10
151.663438985
 20
13.3563532974
 30
0.0
  0
VERTEX
  8
0
 10
152.529464389
 20
12.8563532974
 30
0.0
  0
VERTEX
  8
0
 10
158.396428666
 20
16.2436467026
 30
0.0
  0
VERTEX
  8
0
 10
159.26245407
 20
15.7436467026
 30
0.0
  0
VERTEX
  8
0
 10
158.396428666
 20
16.2536467026
 30
0.0
  0
VERTEX
  8
0
 10
158.396428666
 20
22.5463532974
 30
0.0
  0
VERTEX
  8
0
 10
159.26245407
 20
23.0563532974
 30
0.0
  0
VERTEX
  8
0
 10
158.396428666
 20
22.5563532974
 30
0.0
  0
VERTEX
  8
0
 10
152.529464389
 20
25.9436467026
 30
0.0
  0
VERTEX
  8
0
 10
151.663438985
 20
25.4436467026
 30
0.0
  0
VERTEX
  8
0
 10
152.529464389
 20
25.9536467026
 30
0.0
  0
VERTEX
  8
0
 10
152.529464389
 20
32.2463532974
 30
0.0
  0
VERTEX
  8
0
 10
151.663438985
 20
32.7563532974
 30
0.0
  0
VERTEX
  8
0
 10
152.529464389
 20
32.2563532974
 30
0.0
  0
VERTEX
  8
0
 10
158.396428666
 20
35.6436467026
 30
0.0
  0
VERTEX
  8
0
 10
159.26245407
 20
35.1436467026
 30
0.0
  0
VERTEX
  8
0
 10
158.396428666
 20
35.6536467026
 30
0.0
  0
VERTEX
  8
0
 10
158.396428666
 20
41.9463532974
 30
0.0
  0
VERTEX
  8
0
 10
159.26245407
 20
42.4563532974
 30
0.0
  0
VERTEX
  8
0
 10
158.396428666
 20
41.9563532974
 30
0.0
  0
VERTEX
  8
0
 10
152.529464389
 20
45.3436467026
 30
0.0
  0
VERTEX
  8
0
 10
151.663438985
 20
44.8436467026
 30
0.0
  0
VERTEX
  8
0
 10
152.529464389
 20
45.3536467026
 30
0.0
  0
VERTEX
  8
0
 10
152.529464389
 20
51.6463532974
 30
0.0
  0
VERTEX
  8
0
 10
151.663438985
 20
52.1563532974
 30
0.0
  0
VERTEX
  8
0
 10
152.529464389
 20
51.6563532974
 30
0.0
  0
VERTEX
  8
0
 10
158.396428666
 20
55.0436467026
 30
0.0
  0
VERTEX
  8
0
 10
159.26245407
 20
54.5436467026
 30
0.0
  0
VERTEX
  8
0
 10
158.396428666
 20
55.0536467026
 30
0.0
  0
VERTEX
  8
0
 10
158.396428666
 20
61.3463532974
 30
0.0
  0
VERTEX
  8
0
 10
159.26245407
 20
61.8563532974
 30
0.0
  0
VERTEX
  8
0
 10
158.396428666
 20
61.3563532974
 30
0.0
  0
VERTEX
  8
0
 10
152.529464389
 20
64.7436467026
 30
0.0
  0
VERTEX
  8
0
 10
151.663438985
 20
64.2436467026
 30
0.0
  0
VERTEX
  8
0
 10
152.529464389
 20
64.7536467026
 30
0.0
  0
VERTEX
  8
0
 10
152.529464389
 20
71.0463532974
 30
0.0
  0
VERTEX
  8
0
 10
151.663438985
 20
71.5563532974
 30
0.0
  0
VERTEX
  8
0
 10
152.529464389
 20
71.0563532974
 30
0.0
  0
VERTEX
  8
0
 10
158.396428666
 20
74.4436467026
 30
0.0
  0
VERTEX
  8
0
 10
159.26245407
 20
73.9436467026
 30
0.0
  0
VERTEX
  8
0
 10
158.396428666
 20
74.4536467026
 30
0.0
  0
VERTEX
  8
0
 10
158.396428666
 20
80.7463532974
 30
0.0
  0
VERTEX
  8
0
 10
159.26245407
 20
81.2563532974
 30
0.0
  0
VERTEX
  8
0
 10
158.396428666
 20
80.7563532974
 30
0.0
  0
VERTEX
  8
0
 10
152.529464389
 20
84.1436467026
 30
0.0
  0
VERTEX
  8
0
 10
151.663438985
 20
83.6436467026
 30
0.0
  0
VERTEX
  8
0
 10
152.529464389
 20
84.1536467026
 30
0.0
  0
VERTEX
  8
0
 10
152.529464389
 20
90.4463532974
 30
0.0
  0
VERTEX
  8
0
 10
151.663438985
 20
90.9563532974
 30
0.0
  0
VERTEX
  8
0
 10
152.529464389
 20
90.4563532974
 30
0.0
  0
VERTEX
  8
0
 10
158.396428666
 20
93.8436467026
 30
0.0
  0
VERTEX
  8
0
 10
159.26245407
 20
93.3436467026
 30
0.0
  0
VERTEX
  8
0
 10
158.396428666
 20
93.8536467026
 30
0.0
  0
VERTEX
  8
0
 10
158.396428666
 20
100.146353297
 30
0.0
  0
VERTEX
  8
0
 10
159.26245407
 20
100.656353297
 30
0.0
  0
VERTEX
  8
0
 10
158.396428666
 20
100.156353297
 30
0.0
  0
VERTEX
  8
0
 10
152.529464389
 20
103.543646703
 30
0.0
  0
VERTEX
  8
0
 10
151.663438985
 20
103.043646703
 30
0.0
  0
VERTEX
  8
0
 10
152.529464389
 20
103.553646703
 30
0.0
  0
VERTEX
  8
0
 10
152.529464389
 20
109.846353297
 30
0.0
  0
VERTEX
  8
0
 10
151.663438985
 20
110.356353297
 30
0.0
  0
VERTEX
  8
0
 10
152.529464389
 20
109.856353297
 30
0.0
  0
VERTEX
  8
0
 10
158.396428666
 20
113.243646703
 30
0.0
  0
VERTEX
  8
0
 10
159.26245407
 20
112.743646703
 30
0.0
  0
VERTEX
  8
0
 10
158.396428666
 20
113.253646703
 30
0.0
  0
VERTEX
  8
0
 10
158.396428666
 20
119.546353297
 30
0.0
  0
VERTEX
  8
0
 10
159.26245407
 20
120.056353297
 30
0.0
  0
VERTEX
  8
0
 10
158.396428666
 20
119.556353297
 30
0.0
  0
VERTEX
  8
0
 10
152.529464389
 20
122.943646703
 30
0.0
  0
VERTEX
  8
0
 10
151.663438985
 20
122.443646703
 30
0.0
  0
VERTEX
  8
0
 10
152.529464389
 20
122.953646703
 30
0.0
  0
VERTEX
  8
0
 10
152.529464389
 20
129.246353297
 30
0.0
  0
VERTEX
  8
0
 10
151.663438985
 20
129.756353297
 30
0.0
  0
VERTEX
  8
0
 10
152.529464389
 20
129.256353297
 30
0.0
  0
VERTEX
  8
0
 10
158.396428666
 20
132.643646703
 30
0.0
  0
VERTEX
  8
0
 10
159.26245407
 20
132.143646703
 30
0.0
  0
VERTEX
  8
0
 10
158.396428666
 20
132.653646703
 30
0.0
  0
VERTEX
  8
0
 10
158.396428666
 20
138.946353297
 30
0.0
  0
VERTEX
  8
0
 10
159.26245407
 20
139.456353297
 30
0.0
  0
VERTEX
  8
0
 10
158.396428666
 20
138.956353297
 30
0.0
  0
VERTEX
  8
0
 10
152.529464389
 20
142.343646703
 30
0.0
  0
VERTEX
  8
0
 10
151.663438985
 20
141.843646703
 30
0.0
  0
VERTEX
  8
0
 10
152.529464389
 20
142.353646703
 30
0.0
  0
VERTEX
  8
0
 10
152.529464389
 20
148.656353297
 30
0.0
  0
VERTEX
  8
0
 10
158.396428666
 20
152.043646703
 30
0.0
  0
VERTEX
  8
0
 10
159.26245407
 20
151.543646703
 30
0.0
  0
VERTEX
  8
0
 10
158.396428666
 20
152.053646703
 30
0.0
  0
VERTEX
  8
0
 10
158.396428666
 20
155.19
 30
0.0
  0
VERTEX
  8
0
 10
157.963415964
 20
155.2
 30
0.0
  0
VERTEX
  8
0
 10
158.396428666
 20
155.2
 30
0.0
  0
VERTEX
  8
0
 10
160.665065162
 20
155.2
 30
0.0
  0
VERTEX
  8
0
 10
165.861217585
 20
152.2
 30
0.0
  0
VERTEX
  8
0
 10
165.861217585
 20
155.19
 30
0.0
  0
VERTEX
  8
0
 10
166.294230287
 20
155.2
 30
0.0
  0
VERTEX
  8
0
 10
165.861217585
 20
155.2
 30
0.0
  0
VERTEX
  8
0
 10
165.861217585
 20
180.2
 30
0.0
  0
VERTEX
  8
0
 10
170.129464389
 20
180.2
 30
0.0
  0
VERTEX
  8
0
 10
170.129464389
 20
157.7
 30
0.0
  0
SEQEND
  8
0
  0
POLYLINE
  8
0
 62
0
 70
0
 66
1
 10
0.0
 20
0.0
 30
0.0
  0
VERTEX
  8
0
 10
165.861217585
 20
74.61
 30
0.0
  0
VERTEX
  8
0
 10
165.861217585
 20
80.6
 30
0.0
  0
VERTEX
  8
0
 10
160.665065162
 20
77.6
 30
0.0
  0
VERTEX
  8
0
 10
165.861217585
 20
74.6
 30
0.0
  0
SEQEND
  8
0
  0
POLYLINE
  8
0
 62
0
 70
0
 66
1
 10
0.0
 20
0.0
 30
0.0
  0
VERTEX
  8
0
 10
156.797711192
 20
26.11
 30
0.0
  0
VERTEX
  8
0
 10
156.797711192
 20
32.1
 30
0.0
  0
VERTEX
  8
0
 10
161.993863615
 20
29.1
 30
0.0
  0
VERTEX
  8
0
 10
156.797711192
 20
26.1
 30
0.0
  0
SEQEND
  8
0
  0
POLYLINE
  8
0
 62
0
 70
0
 66
1
 10
0.0
 20
0.0
 30
0.0
  0
VERTEX
  8
0
 10
168.530746914
 20
26.11
 30
0.0
  0
VERTEX
  8
0
 10
168.530746914
 20
32.1
 30
0.0
  0
VERTEX
  8
0
 10
173.726899337
 20
29.1
 30
0.0
  0
VERTEX
  8
0
 10
168.530746914
 20
26.1
 30
0.0
  0
SEQEND
  8
0
  0
POLYLINE
  8
0
 62
0
 70
0
 66
1
 10
0.0
 20
0.0
 30
0.0
  0
VERTEX
  8
0
 10
156.797711192
 20
123.11
 30
0.0
  0
VERTEX
  8
0
 10
156.797711192
 20
129.1
 30
0.0
  0
VERTEX
  8
0
 10
161.993863615
 20
126.1
 30
0.0
  0
VERTEX
  8
0
 10
156.797711192
 20
123.1
 30
0.0
  0
SEQEND
  8
0
  0
POLYLINE
  8
0
 62
0
 70
0
 66
1
 10
0.0
 20
0.0
 30
0.0
  0
VERTEX
  8
0
 10
165.861217585
 20
113.41
 30
0.0
  0
VERTEX
  8
0
 10
165.861217585
 20
119.4
 30
0.0
  0
VERTEX
  8
0
 10
160.665065162
 20
116.4
 30
0.0
  0
VERTEX
  8
0
 10
165.861217585
 20
113.4
 30
0.0
  0
SEQEND
  8
0
  0
POLYLINE
  8
0
 62
0
 70
0
 66
1
 10
0.0
 20
0.0
 30
0.0
  0
VERTEX
  8
0
 10
165.861217585
 20
132.81
 30
0.0
  0
VERTEX
  8
0
 10
165.861217585
 20
138.8
 30
0.0
  0
VERTEX
  8
0
 10
160.665065162
 20
135.8
 30
0.0
  0
VERTEX
  8
0
 10
165.861217585
 20
132.8
 30
0.0
  0
SEQEND
  8
0
  0
POLYLINE
  8
0
 62
0
 70
0
 66
1
 10
0.0
 20
0.0
 30
0.0
  0
VERTEX
  8
0
 10
177.594253307
 20
74.61
 30
0.0
  0
VERTEX
  8
0
 10
177.594253307
 20
80.6
 30
0.0
  0
VERTEX
  8
0
 10
172.398100884
 20
77.6
 30
0.0
  0
VERTEX
  8
0
 10
177.594253307
 20
74.6
 30
0.0
  0
SEQEND
  8
0
  0
POLYLINE
  8
0
 62
0
 70
0
 66
1
 10
0.0
 20
0.0
 30
0.0
  0
VERTEX
  8
0
 10
168.530746914
 20
103.71
 30
0.0
  0
VERTEX
  8
0
 10
168.530746914
 20
109.7
 30
0.0
  0
VERTEX
  8
0
 10
173.726899337
 20
106.7
 30
0.0
  0
VERTEX
  8
0
 10
168.530746914
 20
103.7
 30
0.0
  0
SEQEND
  8
0
  0
POLYLINE
  8
0
 62
0
 70
0
 66
1
 10
0.0
 20
0.0
 30
0.0
  0
VERTEX
  8
0
 10
165.861217585
 20
16.41
 30
0.0
  0
VERTEX
  8
0
 10
165.861217585
 20
22.4
 30
0.0
  0
VERTEX
  8
0
 10
160.665065162
 20
19.4
 30
0.0
  0
VERTEX
  8
0
 10
165.861217585
 20
16.4
 30
0.0
  0
SEQEND
  8
0
  0
POLYLINE
  8
0
 62
0
 70
0
 66
1
 10
0.0
 20
0.0
 30
0.0
  0
VERTEX
  8
0
 10
165.861217585
 20
55.21
 30
0.0
  0
VERTEX
  8
0
 10
165.861217585
 20
61.2
 30
0.0
  0
VERTEX
  8
0
 10
160.665065162
 20
58.2
 30
0.0
  0
VERTEX
  8
0
 10
165.861217585
 20
55.2
 30
0.0
  0
SEQEND
  8
0
  0
POLYLINE
  8
0
 62
0
 70
0
 66
1
 10
0.0
 20
0.0
 30
0.0
  0
VERTEX
  8
0
 10
165.861217585
 20
94.01
 30
0.0
  0
VERTEX
  8
0
 10
165.861217585
 20
100.0
 30
0.0
  0
VERTEX
  8
0
 10
160.665065162
 20
97.0
 30
0.0
  0
VERTEX
  8
0
 10
165.861217585
 20
94.0
 30
0.0
  0
SEQEND
  8
0
  0
POLYLINE
  8
0
 62
0
 70
0
 66
1
 10
0.0
 20
0.0
 30
0.0
  0
VERTEX
  8
0
 10
168.530746914
 20
84.31
 30
0.0
  0
VERTEX
  8
0
 10
168.530746914
 20
90.3
 30
0.0
  0
VERTEX
  8
0
 10
173.726899337
 20
87.3
 30
0.0
  0
VERTEX
  8
0
 10
168.530746914
 20
84.3
 30
0.0
  0
SEQEND
  8
0
  0
POLYLINE
  8
0
 62
0
 70
0
 66
1
 10
0.0
 20
0.0
 30
0.0
  0
VERTEX
  8
0
 10
156.797711192
 20
45.51
 30
0.0
  0
VERTEX
  8
0
 10
156.797711192
 20
51.5
 30
0.0
  0
VERTEX
  8
0
 10
161.993863615
 20
48.5
 30
0.0
  0
VERTEX
  8
0
 10
156.797711192
 20
45.5
 30
0.0
  0
SEQEND
  8
0
  0
POLYLINE
  8
0
 62
0
 70
0
 66
1
 10
0.0
 20
0.0
 30
0.0
  0
VERTEX
  8
0
 10
156.797711192
 20
84.31
 30
0.0
  0
VERTEX
  8
0
 10
156.797711192
 20
90.3
 30
0.0
  0
VERTEX
  8
0
 10
161.993863615
 20
87.3
 30
0.0
  0
VERTEX
  8
0
 10
156.797711192
 20
84.3
 30
0.0
  0
SEQEND
  8
0
  0
POLYLINE
  8
0
 62
0
 70
0
 66
1
 10
0.0
 20
0.0
 30
0.0
  0
VERTEX
  8
0
 10
156.797711192
 20
103.71
 30
0.0
  0
VERTEX
  8
0
 10
156.797711192
 20
109.7
 30
0.0
  0
VERTEX
  8
0
 10
161.993863615
 20
106.7
 30
0.0
  0
VERTEX
  8
0
 10
156.797711192
 20
103.7
 30
0.0
  0
SEQEND
  8
0
  0
POLYLINE
  8
0
 62
0
 70
0
 66
1
 10
0.0
 20
0.0
 30
0.0
  0
VERTEX
  8
0
 10
156.797711192
 20
142.51
 30
0.0
  0
VERTEX
  8
0
 10
156.797711192
 20
148.5
 30
0.0
  0
VERTEX
  8
0
 10
161.993863615
 20
145.5
 30
0.0
  0
VERTEX
  8
0
 10
156.797711192
 20
142.5
 30
0.0
  0
SEQEND
  8
0
  0
POLYLINE
  8
0
 62
0
 70
0
 66
1
 10
0.0
 20
0.0
 30
0.0
  0
VERTEX
  8
0
 10
177.594253307
 20
16.41
 30
0.0
  0
VERTEX
  8
0
 10
177.594253307
 20
22.4
 30
0.0
  0
VERTEX
  8
0
 10
172.398100884
 20
19.4
 30
0.0
  0
VERTEX
  8
0
 10
177.594253307
 20
16.4
 30
0.0
  0
SEQEND
  8
0
  0
POLYLINE
  8
0
 62
0
 70
0
 66
1
 10
0.0
 20
0.0
 30
0.0
  0
VERTEX
  8
0
 10
156.797711192
 20
64.91
 30
0.0
  0
VERTEX
  8
0
 10
156.797711192
 20
70.9
 30
0.0
  0
VERTEX
  8
0
 10
161.993863615
 20
67.9
 30
0.0
  0
VERTEX
  8
0
 10
156.797711192
 20
64.9
 30
0.0
  0
SEQEND
  8
0
  0
POLYLINE
  8
0
 62
0
 70
0
 66
1
 10
0.0
 20
0.0
 30
0.0
  0
VERTEX
  8
0
 10
165.861217585
 20
35.81
 30
0.0
  0
VERTEX
  8
0
 10
165.861217585
 20
41.8
 30
0.0
  0
VERTEX
  8
0
 10
160.665065162
 20
38.8
 30
0.0
  0
VERTEX
  8
0
 10
165.861217585
 20
35.8
 30
0.0
  0
SEQEND
  8
0
  0
POLYLINE
  8
0
 62
0
 70
0
 66
1
 10
0.0
 20
0.0
 30
0.0
  0
VERTEX
  8
0
 10
170.129464389
 20
3.14635329744
 30
0.0
  0
VERTEX
  8
0
 10
170.995489792
 20
3.65635329744
 30
0.0
  0
VERTEX
  8
0
 10
170.129464389
 20
3.15635329744
 30
0.0
  0
VERTEX
  8
0
 10
164.262500111
 20
6.54364670256
 30
0.0
  0
VERTEX
  8
0
 10
163.396474707
 20
6.04364670256
 30
0.0
  0
VERTEX
  8
0
 10
164.262500111
 20
6.55364670256
 30
0.0
  0
VERTEX
  8
0
 10
164.262500111
 20
12.8463532974
 30
0.0
  0
VERTEX
  8
0
 10
163.396474707
 20
13.3563532974
 30
0.0
  0
VERTEX
  8
0
 10
164.262500111
 20
12.8563532974
 30
0.0
  0
VERTEX
  8
0
 10
170.129464389
 20
16.2436467026
 30
0.0
  0
VERTEX
  8
0
 10
170.995489792
 20
15.7436467026
 30
0.0
  0
VERTEX
  8
0
 10
170.129464389
 20
16.2536467026
 30
0.0
  0
VERTEX
  8
0
 10
170.129464389
 20
22.5463532974
 30
0.0
  0
VERTEX
  8
0
 10
170.995489792
 20
23.0563532974
 30
0.0
  0
VERTEX
  8
0
 10
170.129464389
 20
22.5563532974
 30
0.0
  0
VERTEX
  8
0
 10
164.262500111
 20
25.9436467026
 30
0.0
  0
VERTEX
  8
0
 10
163.396474707
 20
25.4436467026
 30
0.0
  0
VERTEX
  8
0
 10
164.262500111
 20
25.9536467026
 30
0.0
  0
VERTEX
  8
0
 10
164.262500111
 20
32.2463532974
 30
0.0
  0
VERTEX
  8
0
 10
163.396474707
 20
32.7563532974
 30
0.0
  0
VERTEX
  8
0
 10
164.262500111
 20
32.2563532974
 30
0.0
  0
VERTEX
  8
0
 10
170.129464389
 20
35.6436467026
 30
0.0
  0
VERTEX
  8
0
 10
170.995489792
 20
35.1436467026
 30
0.0
  0
VERTEX
  8
0
 10
170.129464389
 20
35.6536467026
 30
0.0
  0
VERTEX
  8
0
 10
170.129464389
 20
41.9463532974
 30
0.0
  0
VERTEX
  8
0
 10
170.995489792
 20
42.4563532974
 30
0.0
  0
VERTEX
  8
0
 10
170.129464389
 20
41.9563532974
 30
0.0
  0
VERTEX
  8
0
 10
164.262500111
 20
45.3436467026
 30
0.0
  0
VERTEX
  8
0
 10
163.396474707
 20
44.8436467026
 30
0.0
  0
VERTEX
  8
0
 10
164.262500111
 20
45.3536467026
 30
0.0
  0
VERTEX
  8
0
 10
164.262500111
 20
51.6463532974
 30
0.0
  0
VERTEX
  8
0
 10
163.396474707
 20
52.1563532974
 30
0.0
  0
VERTEX
  8
0
 10
164.262500111
 20
51.6563532974
 30
0.0
  0
VERTEX
  8
0
 10
170.129464389
 20
55.0436467026
 30
0.0
  0
VERTEX
  8
0
 10
170.995489792
 20
54.5436467026
 30
0.0
  0
VERTEX
  8
0
 10
170.129464389
 20
55.0536467026
 30
0.0
  0
VERTEX
  8
0
 10
170.129464389
 20
61.3463532974
 30
0.0
  0
VERTEX
  8
0
 10
170.995489792
 20
61.8563532974
 30
0.0
  0
VERTEX
  8
0
 10
170.129464389
 20
61.3563532974
 30
0.0
  0
VERTEX
  8
0
 10
164.262500111
 20
64.7436467026
 30
0.0
  0
VERTEX
  8
0
 10
163.396474707
 20
64.2436467026
 30
0.0
  0
VERTEX
  8
0
 10
164.262500111
 20
64.7536467026
 30
0.0
  0
VERTEX
  8
0
 10
164.262500111
 20
71.0463532974
 30
0.0
  0
VERTEX
  8
0
 10
163.396474707
 20
71.5563532974
 30
0.0
  0
VERTEX
  8
0
 10
164.262500111
 20
71.0563532974
 30
0.0
  0
VERTEX
  8
0
 10
170.129464389
 20
74.4436467026
 30
0.0
  0
VERTEX
  8
0
 10
170.995489792
 20
73.9436467026
 30
0.0
  0
VERTEX
  8
0
 10
170.129464389
 20
74.4536467026
 30
0.0
  0
VERTEX
  8
0
 10
170.129464389
 20
80.7463532974
 30
0.0
  0
VERTEX
  8
0
 10
170.995489792
 20
81.2563532974
 30
0.0
  0
VERTEX
  8
0
 10
170.129464389
 20
80.7563532974
 30
0.0
  0
VERTEX
  8
0
 10
164.262500111
 20
84.1436467026
 30
0.0
  0
VERTEX
  8
0
 10
163.396474707
 20
83.6436467026
 30
0.0
  0
VERTEX
  8
0
 10
164.262500111
 20
84.1536467026
 30
0.0
  0
VERTEX
  8
0
 10
164.262500111
 20
90.4463532974
 30
0.0
  0
VERTEX
  8
0
 10
163.396474707
 20
90.9563532974
 30
0.0
  0
VERTEX
  8
0
 10
164.262500111
 20
90.4563532974
 30
0.0
  0
VERTEX
  8
0
 10
170.129464389
 20
93.8436467026
 30
0.0
  0
VERTEX
  8
0
 10
170.995489792
 20
93.3436467026
 30
0.0
  0
VERTEX
  8
0
 10
170.129464389
 20
93.8536467026
 30
0.0
  0
VERTEX
  8
0
 10
170.129464389
 20
100.146353297
 30
0.0
  0
VERTEX
  8
0
 10
170.995489792
 20
100.656353297
 30
0.0
  0
VERTEX
  8
0
 10
170.129464389
 20
100.156353297
 30
0.0
  0
VERTEX
  8
0
 10
164.262500111
 20
103.543646703
 30
0.0
  0
VERTEX
  8
0
 10
163.396474707
 20
103.043646703
 30
0.0
  0
VERTEX
  8
0
 10
164.262500111
 20
103.553646703
 30
0.0
  0
VERTEX
  8
0
 10
164.262500111
 20
109.846353297
 30
0.0
  0
VERTEX
  8
0
 10
163.396474707
 20
110.356353297
 30
0.0
  0
VERTEX
  8
0
 10
164.262500111
 20
109.856353297
 30
0.0
  0
VERTEX
  8
0
 10
170.129464389
 20
113.243646703
 30
0.0
  0
VERTEX
  8
0
 10
170.995489792
 20
112.743646703
 30
0.0
  0
VERTEX
  8
0
 10
170.129464389
 20
113.253646703
 30
0.0
  0
VERTEX
  8
0
 10
170.129464389
 20
119.546353297
 30
0.0
  0
VERTEX
  8
0
 10
170.995489792
 20
120.056353297
 30
0.0
  0
VERTEX
  8
0
 10
170.129464389
 20
119.556353297
 30
0.0
  0
VERTEX
  8
0
 10
164.262500111
 20
122.943646703
 30
0.0
  0
VERTEX
  8
0
 10
163.396474707
 20
122.443646703
 30
0.0
  0
VERTEX
  8
0
 10
164.262500111
 20
122.953646703
 30
0.0
  0
VERTEX
  8
0
 10
164.262500111
 20
129.246353297
 30
0.0
  0
VERTEX
  8
0
 10
163.396474707
 20
129.756353297
 30
0.0
  0
VERTEX
  8
0
 10
164.262500111
 20
129.256353297
 30
0.0
  0
VERTEX
  8
0
 10
170.129464389
 20
132.643646703
 30
0.0
  0
VERTEX
  8
0
 10
170.995489792
 20
132.143646703
 30
0.0
  0
VERTEX
  8
0
 10
170.129464389
 20
132.653646703
 30
0.0
  0
VERTEX
  8
0
 10
170.129464389
 20
138.946353297
 30
0.0
  0
VERTEX
  8
0
 10
170.995489792
 20
139.456353297
 30
0.0
  0
VERTEX
  8
0
 10
170.129464389
 20
138.956353297
 30
0.0
  0
VERTEX
  8
0
 10
164.262500111
 20
142.343646703
 30
0.0
  0
VERTEX
  8
0
 10
163.396474707
 20
141.843646703
 30
0.0
  0
VERTEX
  8
0
 10
164.262500111
 20
142.353646703
 30
0.0
  0
VERTEX
  8
0
 10
164.262500111
 20
148.656353297
 30
0.0
  0
VERTEX
  8
0
 10
170.129464389
 20
152.043646703
 30
0.0
  0
VERTEX
  8
0
 10
170.995489792
 20
151.543646703
 30
0.0
  0
VERTEX
  8
0
 10
170.129464389
 20
152.053646703
 30
0.0
  0
VERTEX
  8
0
 10
170.129464389
 20
155.19
 30
0.0
  0
VERTEX
  8
0
 10
169.696451687
 20
155.2
 30
0.0
  0
VERTEX
  8
0
 10
170.129464389
 20
155.2
 30
0.0
  0
VERTEX
  8
0
 10
172.398100884
 20
155.2
 30
0.0
  0
VERTEX
  8
0
 10
177.594253307
 20
152.2
 30
0.0
  0
VERTEX
  8
0
 10
177.594253307
 20
155.19
 30
0.0
  0
VERTEX
  8
0
 10
178.027266009
 20
155.2
 30
0.0
  0
VERTEX
  8
0
 10
177.594253307
 20
155.2
 30
0.0
  0
VERTEX
  8
0
 10
177.594253307
 20
180.2
 30
0.0
  0
VERTEX
  8
0
 10
181.862500111
 20
180.2
 30
0.0
  0
VERTEX
  8
0
 10
181.862500111
 20
157.7
 30
0.0
  0
SEQEND
  8
0
  0
POLYLINE
  8
0
 62
0
 70
0
 66
1
 10
0.0
 20
0.0
 30
0.0
  0
VERTEX
  8
0
 10
168.530746914
 20
6.71
 30
0.0
  0
VERTEX
  8
0
 10
168.530746914
 20
12.7
 30
0.0
  0
VERTEX
  8
0
 10
173.726899337
 20
9.7
 30
0.0
  0
VERTEX
  8
0
 10
168.530746914
 20
6.7
 30
0.0
  0
SEQEND
  8
0
  0
POLYLINE
  8
0
 62
0
 70
0
 66
1
 10
0.0
 20
0.0
 30
0.0
  0
VERTEX
  8
0
 10
177.594253307
 20
35.81
 30
0.0
  0
VERTEX
  8
0
 10
177.594253307
 20
41.8
 30
0.0
  0
VERTEX
  8
0
 10
172.398100884
 20
38.8
 30
0.0
  0
VERTEX
  8
0
 10
177.594253307
 20
35.8
 30
0.0
  0
SEQEND
  8
0
  0
POLYLINE
  8
0
 62
0
 70
0
 66
1
 10
0.0
 20
0.0
 30
0.0
  0
VERTEX
  8
0
 10
168.530746914
 20
45.51
 30
0.0
  0
VERTEX
  8
0
 10
168.530746914
 20
51.5
 30
0.0
  0
VERTEX
  8
0
 10
173.726899337
 20
48.5
 30
0.0
  0
VERTEX
  8
0
 10
168.530746914
 20
45.5
 30
0.0
  0
SEQEND
  8
0
  0
POLYLINE
  8
0
 62
0
 70
0
 66
1
 10
0.0
 20
0.0
 30
0.0
  0
VERTEX
  8
0
 10
177.594253307
 20
55.21
 30
0.0
  0
VERTEX
  8
0
 10
177.594253307
 20
61.2
 30
0.0
  0
VERTEX
  8
0
 10
172.398100884
 20
58.2
 30
0.0
  0
VERTEX
  8
0
 10
177.594253307
 20
55.2
 30
0.0
  0
SEQEND
  8
0
  0
POLYLINE
  8
0
 62
0
 70
0
 66
1
 10
0.0
 20
0.0
 30
0.0
  0
VERTEX
  8
0
 10
168.530746914
 20
64.91
 30
0.0
  0
VERTEX
  8
0
 10
168.530746914
 20
70.9
 30
0.0
  0
VERTEX
  8
0
 10
173.726899337
 20
67.9
 30
0.0
  0
VERTEX
  8
0
 10
168.530746914
 20
64.9
 30
0.0
  0
SEQEND
  8
0
  0
POLYLINE
  8
0
 62
0
 70
0
 66
1
 10
0.0
 20
0.0
 30
0.0
  0
VERTEX
  8
0
 10
177.594253307
 20
94.01
 30
0.0
  0
VERTEX
  8
0
 10
177.594253307
 20
100.0
 30
0.0
  0
VERTEX
  8
0
 10
172.398100884
 20
97.0
 30
0.0
  0
VERTEX
  8
0
 10
177.594253307
 20
94.0
 30
0.0
  0
SEQEND
  8
0
  0
POLYLINE
  8
0
 62
0
 70
0
 66
1
 10
0.0
 20
0.0
 30
0.0
  0
VERTEX
  8
0
 10
177.594253307
 20
113.41
 30
0.0
  0
VERTEX
  8
0
 10
177.594253307
 20
119.4
 30
0.0
  0
VERTEX
  8
0
 10
172.398100884
 20
116.4
 30
0.0
  0
VERTEX
  8
0
 10
177.594253307
 20
113.4
 30
0.0
  0
SEQEND
  8
0
  0
POLYLINE
  8
0
 62
0
 70
0
 66
1
 10
0.0
 20
0.0
 30
0.0
  0
VERTEX
  8
0
 10
168.530746914
 20
123.11
 30
0.0
  0
VERTEX
  8
0
 10
168.530746914
 20
129.1
 30
0.0
  0
VERTEX
  8
0
 10
173.726899337
 20
126.1
 30
0.0
  0
VERTEX
  8
0
 10
168.530746914
 20
123.1
 30
0.0
  0
SEQEND
  8
0
  0
POLYLINE
  8
0
 62
0
 70
0
 66
1
 10
0.0
 20
0.0
 30
0.0
  0
VERTEX
  8
0
 10
168.530746914
 20
142.51
 30
0.0
  0
VERTEX
  8
0
 10
168.530746914
 20
148.5
 30
0.0
  0
VERTEX
  8
0
 10
173.726899337
 20
145.5
 30
0.0
  0
VERTEX
  8
0
 10
168.530746914
 20
142.5
 30
0.0
  0
SEQEND
  8
0
  0
POLYLINE
  8
0
 62
0
 70
0
 66
1
 10
0.0
 20
0.0
 30
0.0
  0
VERTEX
  8
0
 10
181.862500111
 20
3.14635329744
 30
0.0
  0
VERTEX
  8
0
 10
182.728525514
 20
3.65635329744
 30
0.0
  0
VERTEX
  8
0
 10
181.862500111
 20
3.15635329744
 30
0.0
  0
VERTEX
  8
0
 10
175.995535833
 20
6.54364670256
 30
0.0
  0
VERTEX
  8
0
 10
175.129510429
 20
6.04364670256
 30
0.0
  0
VERTEX
  8
0
 10
175.995535833
 20
6.55364670256
 30
0.0
  0
VERTEX
  8
0
 10
175.995535833
 20
12.8463532974
 30
0.0
  0
VERTEX
  8
0
 10
175.129510429
 20
13.3563532974
 30
0.0
  0
VERTEX
  8
0
 10
175.995535833
 20
12.8563532974
 30
0.0
  0
VERTEX
  8
0
 10
181.862500111
 20
16.2436467026
 30
0.0
  0
VERTEX
  8
0
 10
182.728525514
 20
15.7436467026
 30
0.0
  0
VERTEX
  8
0
 10
181.862500111
 20
16.2536467026
 30
0.0
  0
VERTEX
  8
0
 10
181.862500111
 20
22.5463532974
 30
0.0
  0
VERTEX
  8
0
 10
182.728525514
 20
23.0563532974
 30
0.0
  0
VERTEX
  8
0
 10
181.862500111
 20
22.5563532974
 30
0.0
  0
VERTEX
  8
0
 10
175.995535833
 20
25.9436467026
 30
0.0
  0
VERTEX
  8
0
 10
175.129510429
 20
25.4436467026
 30
0.0
  0
VERTEX
  8
0
 10
175.995535833
 20
25.9536467026
 30
0.0
  0
VERTEX
  8
0
 10
175.995535833
 20
32.2463532974
 30
0.0
  0
VERTEX
  8
0
 10
175.129510429
 20
32.7563532974
 30
0.0
  0
VERTEX
  8
0
 10
175.995535833
 20
32.2563532974
 30
0.0
  0
VERTEX
  8
0
 10
181.862500111
 20
35.6436467026
 30
0.0
  0
VERTEX
  8
0
 10
182.728525514
 20
35.1436467026
 30
0.0
  0
VERTEX
  8
0
 10
181.862500111
 20
35.6536467026
 30
0.0
  0
VERTEX
  8
0
 10
181.862500111
 20
41.9463532974
 30
0.0
  0
VERTEX
  8
0
 10
182.728525514
 20
42.4563532974
 30
0.0
  0
VERTEX
  8
0
 10
181.862500111
 20
41.9563532974
 30
0.0
  0
VERTEX
  8
0
 10
175.995535833
 20
45.3436467026
 30
0.0
  0
VERTEX
  8
0
 10
175.129510429
 20
44.8436467026
 30
0.0
  0
VERTEX
  8
0
 10
175.995535833
 20
45.3536467026
 30
0.0
  0
VERTEX
  8
0
 10
175.995535833
 20
51.6463532974
 30
0.0
  0
VERTEX
  8
0
 10
175.129510429
 20
52.1563532974
 30
0.0
  0
VERTEX
  8
0
 10
175.995535833
 20
51.6563532974
 30
0.0
  0
VERTEX
  8
0
 10
181.862500111
 20
55.0436467026
 30
0.0
  0
VERTEX
  8
0
 10
182.728525514
 20
54.5436467026
 30
0.0
  0
VERTEX
  8
0
 10
181.862500111
 20
55.0536467026
 30
0.0
  0
VERTEX
  8
0
 10
181.862500111
 20
61.3463532974
 30
0.0
  0
VERTEX
  8
0
 10
182.728525514
 20
61.8563532974
 30
0.0
  0
VERTEX
  8
0
 10
181.862500111
 20
61.3563532974
 30
0.0
  0
VERTEX
  8
0
 10
175.995535833
 20
64.7436467026
 30
0.0
  0
VERTEX
  8
0
 10
175.129510429
 20
64.2436467026
 30
0.0
  0
VERTEX
  8
0
 10
175.995535833
 20
64.7536467026
 30
0.0
  0
VERTEX
  8
0
 10
175.995535833
 20
71.0463532974
 30
0.0
  0
VERTEX
  8
0
 10
175.129510429
 20
71.5563532974
 30
0.0
  0
VERTEX
  8
0
 10
175.995535833
 20
71.0563532974
 30
0.0
  0
VERTEX
  8
0
 10
181.862500111
 20
74.4436467026
 30
0.0
  0
VERTEX
  8
0
 10
182.728525514
 20
73.9436467026
 30
0.0
  0
VERTEX
  8
0
 10
181.862500111
 20
74.4536467026
 30
0.0
  0
VERTEX
  8
0
 10
181.862500111
 20
80.7463532974
 30
0.0
  0
VERTEX
  8
0
 10
182.728525514
 20
81.2563532974
 30
0.0
  0
VERTEX
  8
0
 10
181.862500111
 20
80.7563532974
 30
0.0
  0
VERTEX
  8
0
 10
175.995535833
 20
84.1436467026
 30
0.0
  0
VERTEX
  8
0
 10
175.129510429
 20
83.6436467026
 30
0.0
  0
VERTEX
  8
0
 10
175.995535833
 20
84.1536467026
 30
0.0
  0
VERTEX
  8
0
 10
175.995535833
 20
90.4463532974
 30
0.0
  0
VERTEX
  8
0
 10
175.129510429
 20
90.9563532974
 30
0.0
  0
VERTEX
  8
0
 10
175.995535833
 20
90.4563532974
 30
0.0
  0
VERTEX
  8
0
 10
181.862500111
 20
93.8436467026
 30
0.0
  0
VERTEX
  8
0
 10
182.728525514
 20
93.3436467026
 30
0.0
  0
VERTEX
  8
0
 10
181.862500111
 20
93.8536467026
 30
0.0
  0
VERTEX
  8
0
 10
181.862500111
 20
100.146353297
 30
0.0
  0
VERTEX
  8
0
 10
182.728525514
 20
100.656353297
 30
0.0
  0
VERTEX
  8
0
 10
181.862500111
 20
100.156353297
 30
0.0
  0
VERTEX
  8
0
 10
175.995535833
 20
103.543646703
 30
0.0
  0
VERTEX
  8
0
 10
175.129510429
 20
103.043646703
 30
0.0
  0
VERTEX
  8
0
 10
175.995535833
 20
103.553646703
 30
0.0
  0
VERTEX
  8
0
 10
175.995535833
 20
109.846353297
 30
0.0
  0
VERTEX
  8
0
 10
175.129510429
 20
110.356353297
 30
0.0
  0
VERTEX
  8
0
 10
175.995535833
 20
109.856353297
 30
0.0
  0
VERTEX
  8
0
 10
181.862500111
 20
113.243646703
 30
0.0
  0
VERTEX
  8
0
 10
182.728525514
 20
112.743646703
 30
0.0
  0
VERTEX
  8
0
 10
181.862500111
 20
113.253646703
 30
0.0
  0
VERTEX
  8
0
 10
181.862500111
 20
119.546353297
 30
0.0
  0
VERTEX
  8
0
 10
182.728525514
 20
120.056353297
 30
0.0
  0
VERTEX
  8
0
 10
181.862500111
 20
119.556353297
 30
0.0
  0
VERTEX
  8
0
 10
175.995535833
 20
122.943646703
 30
0.0
  0
VERTEX
  8
0
 10
175.129510429
 20
122.443646703
 30
0.0
  0
VERTEX
  8
0
 10
175.995535833
 20
122.953646703
 30
0.0
  0
VERTEX
  8
0
 10
175.995535833
 20
129.246353297
 30
0.0
  0
VERTEX
  8
0
 10
175.129510429
 20
129.756353297
 30
0.0
  0
VERTEX
  8
0
 10
175.995535833
 20
129.256353297
 30
0.0
  0
VERTEX
  8
0
 10
181.862500111
 20
132.643646703
 30
0.0
  0
VERTEX
  8
0
 10
182.728525514
 20
132.143646703
 30
0.0
  0
VERTEX
  8
0
 10
181.862500111
 20
132.653646703
 30
0.0
  0
VERTEX
  8
0
 10
181.862500111
 20
138.946353297
 30
0.0
  0
VERTEX
  8
0
 10
182.728525514
 20
139.456353297
 30
0.0
  0
VERTEX
  8
0
 10
181.862500111
 20
138.956353297
 30
0.0
  0
VERTEX
  8
0
 10
175.995535833
 20
142.343646703
 30
0.0
  0
VERTEX
  8
0
 10
175.129510429
 20
141.843646703
 30
0.0
  0
VERTEX
  8
0
 10
175.995535833
 20
142.353646703
 30
0.0
  0
VERTEX
  8
0
 10
175.995535833
 20
148.656353297
 30
0.0
  0
VERTEX
  8
0
 10
181.862500111
 20
152.043646703
 30
0.0
  0
VERTEX
  8
0
 10
182.728525514
 20
151.543646703
 30
0.0
  0
VERTEX
  8
0
 10
181.862500111
 20
152.053646703
 30
0.0
  0
VERTEX
  8
0
 10
181.862500111
 20
155.19
 30
0.0
  0
VERTEX
  8
0
 10
181.429487409
 20
155.2
 30
0.0
  0
VERTEX
  8
0
 10
181.862500111
 20
155.2
 30
0.0
  0
SEQEND
  8
0
  0
POLYLINE
  8
0
 62
0
 70
0
 66
1
 10
0.0
 20
0.0
 30
0.0
  0
VERTEX
  8
0
 10
177.594253307
 20
132.81
 30
0.0
  0
VERTEX
  8
0
 10
177.594253307
 20
138.8
 30
0.0
  0
VERTEX
  8
0
 10
172.398100884
 20
135.8
 30
0.0
  0
VERTEX
  8
0
 10
177.594253307
 20
132.8
 30
0.0
  0
SEQEND
  8
0
  0
POLYLINE
  8
0
 62
0
 70
0
 66
1
 10
0.0
 20
0.0
 30
0.0
  0
VERTEX
  8
0
 10
98.1325325811
 20
64.91
 30
0.0
  0
VERTEX
  8
0
 10
98.1325325811
 20
70.9
 30
0.0
  0
VERTEX
  8
0
 10
103.328685004
 20
67.9
 30
0.0
  0
VERTEX
  8
0
 10
98.1325325811
 20
64.9
 30
0.0
  0
SEQEND
  8
0
  0
POLYLINE
  8
0
 62
0
 70
0
 66
1
 10
0.0
 20
0.0
 30
0.0
  0
VERTEX
  8
0
 10
99.7312500554
 20
3.14635329744
 30
0.0
  0
VERTEX
  8
0
 10
100.597275459
 20
3.65635329744
 30
0.0
  0
VERTEX
  8
0
 10
99.7312500554
 20
3.15635329744
 30
0.0
  0
VERTEX
  8
0
 10
93.8642857776
 20
6.54364670256
 30
0.0
  0
VERTEX
  8
0
 10
92.9982603738
 20
6.04364670256
 30
0.0
  0
VERTEX
  8
0
 10
93.8642857776
 20
6.55364670256
 30
0.0
  0
VERTEX
  8
0
 10
93.8642857776
 20
12.8463532974
 30
0.0
  0
VERTEX
  8
0
 10
92.9982603738
 20
13.3563532974
 30
0.0
  0
VERTEX
  8
0
 10
93.8642857776
 20
12.8563532974
 30
0.0
  0
VERTEX
  8
0
 10
99.7312500554
 20
16.2436467026
 30
0.0
  0
VERTEX
  8
0
 10
100.597275459
 20
15.7436467026
 30
0.0
  0
VERTEX
  8
0
 10
99.7312500554
 20
16.2536467026
 30
0.0
  0
VERTEX
  8
0
 10
99.7312500554
 20
22.5463532974
 30
0.0
  0
VERTEX
  8
0
 10
100.597275459
 20
23.0563532974
 30
0.0
  0
VERTEX
  8
0
 10
99.7312500554
 20
22.5563532974
 30
0.0
  0
VERTEX
  8
0
 10
93.8642857776
 20
25.9436467026
 30
0.0
  0
VERTEX
  8
0
 10
92.9982603738
 20
25.4436467026
 30
0.0
  0
VERTEX
  8
0
 10
93.8642857776
 20
25.9536467026
 30
0.0
  0
VERTEX
  8
0
 10
93.8642857776
 20
32.2463532974
 30
0.0
  0
VERTEX
  8
0
 10
92.9982603738
 20
32.7563532974
 30
0.0
  0
VERTEX
  8
0
 10
93.8642857776
 20
32.2563532974
 30
0.0
  0
VERTEX
  8
0
 10
99.7312500554
 20
35.6436467026
 30
0.0
  0
VERTEX
  8
0
 10
100.597275459
 20
35.1436467026
 30
0.0
  0
VERTEX
  8
0
 10
99.7312500554
 20
35.6536467026
 30
0.0
  0
VERTEX
  8
0
 10
99.7312500554
 20
41.9463532974
 30
0.0
  0
VERTEX
  8
0
 10
100.597275459
 20
42.4563532974
 30
0.0
  0
VERTEX
  8
0
 10
99.7312500554
 20
41.9563532974
 30
0.0
  0
VERTEX
  8
0
 10
93.8642857776
 20
45.3436467026
 30
0.0
  0
VERTEX
  8
0
 10
92.9982603738
 20
44.8436467026
 30
0.0
  0
VERTEX
  8
0
 10
93.8642857776
 20
45.3536467026
 30
0.0
  0
VERTEX
  8
0
 10
93.8642857776
 20
51.6463532974
 30
0.0
  0
VERTEX
  8
0
 10
92.9982603738
 20
52.1563532974
 30
0.0
  0
VERTEX
  8
0
 10
93.8642857776
 20
51.6563532974
 30
0.0
  0
VERTEX
  8
0
 10
99.7312500554
 20
55.0436467026
 30
0.0
  0
VERTEX
  8
0
 10
100.597275459
 20
54.5436467026
 30
0.0
  0
VERTEX
  8
0
 10
99.7312500554
 20
55.0536467026
 30
0.0
  0
VERTEX
  8
0
 10
99.7312500554
 20
61.3463532974
 30
0.0
  0
VERTEX
  8
0
 10
100.597275459
 20
61.8563532974
 30
0.0
  0
VERTEX
  8
0
 10
99.7312500554
 20
61.3563532974
 30
0.0
  0
VERTEX
  8
0
 10
93.8642857776
 20
64.7436467026
 30
0.0
  0
VERTEX
  8
0
 10
92.9982603738
 20
64.2436467026
 30
0.0
  0
VERTEX
  8
0
 10
93.8642857776
 20
64.7536467026
 30
0.0
  0
VERTEX
  8
0
 10
93.8642857776
 20
71.0463532974
 30
0.0
  0
VERTEX
  8
0
 10
92.9982603738
 20
71.5563532974
 30
0.0
  0
VERTEX
  8
0
 10
93.8642857776
 20
71.0563532974
 30
0.0
  0
VERTEX
  8
0
 10
99.7312500554
 20
74.4436467026
 30
0.0
  0
VERTEX
  8
0
 10
100.597275459
 20
73.9436467026
 30
0.0
  0
VERTEX
  8
0
 10
99.7312500554
 20
74.4536467026
 30
0.0
  0
VERTEX
  8
0
 10
99.7312500554
 20
80.7463532974
 30
0.0
  0
VERTEX
  8
0
 10
100.597275459
 20
81.2563532974
 30
0.0
  0
VERTEX
  8
0
 10
99.7312500554
 20
80.7563532974
 30
0.0
  0
VERTEX
  8
0
 10
93.8642857776
 20
84.1436467026
 30
0.0
  0
VERTEX
  8
0
 10
92.9982603738
 20
83.6436467026
 30
0.0
  0
VERTEX
  8
0
 10
93.8642857776
 20
84.1536467026
 30
0.0
  0
VERTEX
  8
0
 10
93.8642857776
 20
90.4463532974
 30
0.0
  0
VERTEX
  8
0
 10
92.9982603738
 20
90.9563532974
 30
0.0
  0
VERTEX
  8
0
 10
93.8642857776
 20
90.4563532974
 30
0.0
  0
VERTEX
  8
0
 10
99.7312500554
 20
93.8436467026
 30
0.0
  0
VERTEX
  8
0
 10
100.597275459
 20
93.3436467026
 30
0.0
  0
VERTEX
  8
0
 10
99.7312500554
 20
93.8536467026
 30
0.0
  0
VERTEX
  8
0
 10
99.7312500554
 20
100.146353297
 30
0.0
  0
VERTEX
  8
0
 10
100.597275459
 20
100.656353297
 30
0.0
  0
VERTEX
  8
0
 10
99.7312500554
 20
100.156353297
 30
0.0
  0
VERTEX
  8
0
 10
93.8642857776
 20
103.543646703
 30
0.0
  0
VERTEX
  8
0
 10
92.9982603738
 20
103.043646703
 30
0.0
  0
VERTEX
  8
0
 10
93.8642857776
 20
103.553646703
 30
0.0
  0
VERTEX
  8
0
 10
93.8642857776
 20
109.846353297
 30
0.0
  0
VERTEX
  8
0
 10
92.9982603738
 20
110.356353297
 30
0.0
  0
VERTEX
  8
0
 10
93.8642857776
 20
109.856353297
 30
0.0
  0
VERTEX
  8
0
 10
99.7312500554
 20
113.243646703
 30
0.0
  0
VERTEX
  8
0
 10
100.597275459
 20
112.743646703
 30
0.0
  0
VERTEX
  8
0
 10
99.7312500554
 20
113.253646703
 30
0.0
  0
VERTEX
  8
0
 10
99.7312500554
 20
119.546353297
 30
0.0
  0
VERTEX
  8
0
 10
100.597275459
 20
120.056353297
 30
0.0
  0
VERTEX
  8
0
 10
99.7312500554
 20
119.556353297
 30
0.0
  0
VERTEX
  8
0
 10
93.8642857776
 20
122.943646703
 30
0.0
  0
VERTEX
  8
0
 10
92.9982603738
 20
122.443646703
 30
0.0
  0
VERTEX
  8
0
 10
93.8642857776
 20
122.953646703
 30
0.0
  0
VERTEX
  8
0
 10
93.8642857776
 20
129.246353297
 30
0.0
  0
VERTEX
  8
0
 10
92.9982603738
 20
129.756353297
 30
0.0
  0
VERTEX
  8
0
 10
93.8642857776
 20
129.256353297
 30
0.0
  0
VERTEX
  8
0
 10
99.7312500554
 20
132.643646703
 30
0.0
  0
VERTEX
  8
0
 10
100.597275459
 20
132.143646703
 30
0.0
  0
VERTEX
  8
0
 10
99.7312500554
 20
132.653646703
 30
0.0
  0
VERTEX
  8
0
 10
99.7312500554
 20
138.946353297
 30
0.0
  0
VERTEX
  8
0
 10
100.597275459
 20
139.456353297
 30
0.0
  0
VERTEX
  8
0
 10
99.7312500554
 20
138.956353297
 30
0.0
  0
VERTEX
  8
0
 10
93.8642857776
 20
142.343646703
 30
0.0
  0
VERTEX
  8
0
 10
92.9982603738
 20
141.843646703
 30
0.0
  0
VERTEX
  8
0
 10
93.8642857776
 20
142.353646703
 30
0.0
  0
VERTEX
  8
0
 10
93.8642857776
 20
148.656353297
 30
0.0
  0
VERTEX
  8
0
 10
99.7312500554
 20
152.043646703
 30
0.0
  0
VERTEX
  8
0
 10
100.597275459
 20
151.543646703
 30
0.0
  0
VERTEX
  8
0
 10
99.7312500554
 20
152.053646703
 30
0.0
  0
VERTEX
  8
0
 10
99.7312500554
 20
155.19
 30
0.0
  0
VERTEX
  8
0
 10
99.2982373535
 20
155.2
 30
0.0
  0
VERTEX
  8
0
 10
99.7312500554
 20
155.2
 30
0.0
  0
VERTEX
  8
0
 10
101.999886551
 20
155.2
 30
0.0
  0
VERTEX
  8
0
 10
107.196038974
 20
152.2
 30
0.0
  0
VERTEX
  8
0
 10
107.196038974
 20
155.19
 30
0.0
  0
VERTEX
  8
0
 10
107.629051676
 20
155.2
 30
0.0
  0
VERTEX
  8
0
 10
107.196038974
 20
155.2
 30
0.0
  0
VERTEX
  8
0
 10
107.196038974
 20
180.2
 30
0.0
  0
VERTEX
  8
0
 10
111.464285778
 20
180.2
 30
0.0
  0
VERTEX
  8
0
 10
111.464285778
 20
157.7
 30
0.0
  0
SEQEND
  8
0
  0
POLYLINE
  8
0
 62
0
 70
0
 66
1
 10
0.0
 20
0.0
 30
0.0
  0
VERTEX
  8
0
 10
86.3994968589
 20
142.51
 30
0.0
  0
VERTEX
  8
0
 10
86.3994968589
 20
148.5
 30
0.0
  0
VERTEX
  8
0
 10
91.5956492816
 20
145.5
 30
0.0
  0
VERTEX
  8
0
 10
86.3994968589
 20
142.5
 30
0.0
  0
SEQEND
  8
0
  0
POLYLINE
  8
0
 62
0
 70
0
 66
1
 10
0.0
 20
0.0
 30
0.0
  0
VERTEX
  8
0
 10
95.4630032518
 20
132.81
 30
0.0
  0
VERTEX
  8
0
 10
95.4630032518
 20
138.8
 30
0.0
  0
VERTEX
  8
0
 10
90.2668508291
 20
135.8
 30
0.0
  0
VERTEX
  8
0
 10
95.4630032518
 20
132.8
 30
0.0
  0
SEQEND
  8
0
  0
POLYLINE
  8
0
 62
0
 70
0
 66
1
 10
0.0
 20
0.0
 30
0.0
  0
VERTEX
  8
0
 10
98.1325325811
 20
26.11
 30
0.0
  0
VERTEX
  8
0
 10
98.1325325811
 20
32.1
 30
0.0
  0
VERTEX
  8
0
 10
103.328685004
 20
29.1
 30
0.0
  0
VERTEX
  8
0
 10
98.1325325811
 20
26.1
 30
0.0
  0
SEQEND
  8
0
  0
POLYLINE
  8
0
 62
0
 70
0
 66
1
 10
0.0
 20
0.0
 30
0.0
  0
VERTEX
  8
0
 10
107.196038974
 20
55.21
 30
0.0
  0
VERTEX
  8
0
 10
107.196038974
 20
61.2
 30
0.0
  0
VERTEX
  8
0
 10
101.999886551
 20
58.2
 30
0.0
  0
VERTEX
  8
0
 10
107.196038974
 20
55.2
 30
0.0
  0
SEQEND
  8
0
  0
POLYLINE
  8
0
 62
0
 70
0
 66
1
 10
0.0
 20
0.0
 30
0.0
  0
VERTEX
  8
0
 10
118.929074696
 20
74.61
 30
0.0
  0
VERTEX
  8
0
 10
118.929074696
 20
80.6
 30
0.0
  0
VERTEX
  8
0
 10
113.732922273
 20
77.6
 30
0.0
  0
VERTEX
  8
0
 10
118.929074696
 20
74.6
 30
0.0
  0
SEQEND
  8
0
  0
POLYLINE
  8
0
 62
0
 70
0
 66
1
 10
0.0
 20
0.0
 30
0.0
  0
VERTEX
  8
0
 10
111.464285778
 20
3.14635329744
 30
0.0
  0
VERTEX
  8
0
 10
112.330311181
 20
3.65635329744
 30
0.0
  0
VERTEX
  8
0
 10
111.464285778
 20
3.15635329744
 30
0.0
  0
VERTEX
  8
0
 10
105.5973215
 20
6.54364670256
 30
0.0
  0
VERTEX
  8
0
 10
104.731296096
 20
6.04364670256
 30
0.0
  0
VERTEX
  8
0
 10
105.5973215
 20
6.55364670256
 30
0.0
  0
VERTEX
  8
0
 10
105.5973215
 20
12.8463532974
 30
0.0
  0
VERTEX
  8
0
 10
104.731296096
 20
13.3563532974
 30
0.0
  0
VERTEX
  8
0
 10
105.5973215
 20
12.8563532974
 30
0.0
  0
VERTEX
  8
0
 10
111.464285778
 20
16.2436467026
 30
0.0
  0
VERTEX
  8
0
 10
112.330311181
 20
15.7436467026
 30
0.0
  0
VERTEX
  8
0
 10
111.464285778
 20
16.2536467026
 30
0.0
  0
VERTEX
  8
0
 10
111.464285778
 20
22.5463532974
 30
0.0
  0
VERTEX
  8
0
 10
112.330311181
 20
23.0563532974
 30
0.0
  0
VERTEX
  8
0
 10
111.464285778
 20
22.5563532974
 30
0.0
  0
VERTEX
  8
0
 10
105.5973215
 20
25.9436467026
 30
0.0
  0
VERTEX
  8
0
 10
104.731296096
 20
25.4436467026
 30
0.0
  0
VERTEX
  8
0
 10
105.5973215
 20
25.9536467026
 30
0.0
  0
VERTEX
  8
0
 10
105.5973215
 20
32.2463532974
 30
0.0
  0
VERTEX
  8
0
 10
104.731296096
 20
32.7563532974
 30
0.0
  0
VERTEX
  8
0
 10
105.5973215
 20
32.2563532974
 30
0.0
  0
VERTEX
  8
0
 10
111.464285778
 20
35.6436467026
 30
0.0
  0
VERTEX
  8
0
 10
112.330311181
 20
35.1436467026
 30
0.0
  0
VERTEX
  8
0
 10
111.464285778
 20
35.6536467026
 30
0.0
  0
VERTEX
  8
0
 10
111.464285778
 20
41.9463532974
 30
0.0
  0
VERTEX
  8
0
 10
112.330311181
 20
42.4563532974
 30
0.0
  0
VERTEX
  8
0
 10
111.464285778
 20
41.9563532974
 30
0.0
  0
VERTEX
  8
0
 10
105.5973215
 20
45.3436467026
 30
0.0
  0
VERTEX
  8
0
 10
104.731296096
 20
44.8436467026
 30
0.0
  0
VERTEX
  8
0
 10
105.5973215
 20
45.3536467026
 30
0.0
  0
VERTEX
  8
0
 10
105.5973215
 20
51.6463532974
 30
0.0
  0
VERTEX
  8
0
 10
104.731296096
 20
52.1563532974
 30
0.0
  0
VERTEX
  8
0
 10
105.5973215
 20
51.6563532974
 30
0.0
  0
VERTEX
  8
0
 10
111.464285778
 20
55.0436467026
 30
0.0
  0
VERTEX
  8
0
 10
112.330311181
 20
54.5436467026
 30
0.0
  0
VERTEX
  8
0
 10
111.464285778
 20
55.0536467026
 30
0.0
  0
VERTEX
  8
0
 10
111.464285778
 20
61.3463532974
 30
0.0
  0
VERTEX
  8
0
 10
112.330311181
 20
61.8563532974
 30
0.0
  0
VERTEX
  8
0
 10
111.464285778
 20
61.3563532974
 30
0.0
  0
VERTEX
  8
0
 10
105.5973215
 20
64.7436467026
 30
0.0
  0
VERTEX
  8
0
 10
104.731296096
 20
64.2436467026
 30
0.0
  0
VERTEX
  8
0
 10
105.5973215
 20
64.7536467026
 30
0.0
  0
VERTEX
  8
0
 10
105.5973215
 20
71.0463532974
 30
0.0
  0
VERTEX
  8
0
 10
104.731296096
 20
71.5563532974
 30
0.0
  0
VERTEX
  8
0
 10
105.5973215
 20
71.0563532974
 30
0.0
  0
VERTEX
  8
0
 10
111.464285778
 20
74.4436467026
 30
0.0
  0
VERTEX
  8
0
 10
112.330311181
 20
73.9436467026
 30
0.0
  0
VERTEX
  8
0
 10
111.464285778
 20
74.4536467026
 30
0.0
  0
VERTEX
  8
0
 10
111.464285778
 20
80.7463532974
 30
0.0
  0
VERTEX
  8
0
 10
112.330311181
 20
81.2563532974
 30
0.0
  0
VERTEX
  8
0
 10
111.464285778
 20
80.7563532974
 30
0.0
  0
VERTEX
  8
0
 10
105.5973215
 20
84.1436467026
 30
0.0
  0
VERTEX
  8
0
 10
104.731296096
 20
83.6436467026
 30
0.0
  0
VERTEX
  8
0
 10
105.5973215
 20
84.1536467026
 30
0.0
  0
VERTEX
  8
0
 10
105.5973215
 20
90.4463532974
 30
0.0
  0
VERTEX
  8
0
 10
104.731296096
 20
90.9563532974
 30
0.0
  0
VERTEX
  8
0
 10
105.5973215
 20
90.4563532974
 30
0.0
  0
VERTEX
  8
0
 10
111.464285778
 20
93.8436467026
 30
0.0
  0
VERTEX
  8
0
 10
112.330311181
 20
93.3436467026
 30
0.0
  0
VERTEX
  8
0
 10
111.464285778
 20
93.8536467026
 30
0.0
  0
VERTEX
  8
0
 10
111.464285778
 20
100.146353297
 30
0.0
  0
VERTEX
  8
0
 10
112.330311181
 20
100.656353297
 30
0.0
  0
VERTEX
  8
0
 10
111.464285778
 20
100.156353297
 30
0.0
  0
VERTEX
  8
0
 10
105.5973215
 20
103.543646703
 30
0.0
  0
VERTEX
  8
0
 10
104.731296096
 20
103.043646703
 30
0.0
  0
VERTEX
  8
0
 10
105.5973215
 20
103.553646703
 30
0.0
  0
VERTEX
  8
0
 10
105.5973215
 20
109.846353297
 30
0.0
  0
VERTEX
  8
0
 10
104.731296096
 20
110.356353297
 30
0.0
  0
VERTEX
  8
0
 10
105.5973215
 20
109.856353297
 30
0.0
  0
VERTEX
  8
0
 10
111.464285778
 20
113.243646703
 30
0.0
  0
VERTEX
  8
0
 10
112.330311181
 20
112.743646703
 30
0.0
  0
VERTEX
  8
0
 10
111.464285778
 20
113.253646703
 30
0.0
  0
VERTEX
  8
0
 10
111.464285778
 20
119.546353297
 30
0.0
  0
VERTEX
  8
0
 10
112.330311181
 20
120.056353297
 30
0.0
  0
VERTEX
  8
0
 10
111.464285778
 20
119.556353297
 30
0.0
  0
VERTEX
  8
0
 10
105.5973215
 20
122.943646703
 30
0.0
  0
VERTEX
  8
0
 10
104.731296096
 20
122.443646703
 30
0.0
  0
VERTEX
  8
0
 10
105.5973215
 20
122.953646703
 30
0.0
  0
VERTEX
  8
0
 10
105.5973215
 20
129.246353297
 30
0.0
  0
VERTEX
  8
0
 10
104.731296096
 20
129.756353297
 30
0.0
  0
VERTEX
  8
0
 10
105.5973215
 20
129.256353297
 30
0.0
  0
VERTEX
  8
0
 10
111.464285778
 20
132.643646703
 30
0.0
  0
VERTEX
  8
0
 10
112.330311181
 20
132.143646703
 30
0.0
  0
VERTEX
  8
0
 10
111.464285778
 20
132.653646703
 30
0.0
  0
VERTEX
  8
0
 10
111.464285778
 20
138.946353297
 30
0.0
  0
VERTEX
  8
0
 10
112.330311181
 20
139.456353297
 30
0.0
  0
VERTEX
  8
0
 10
111.464285778
 20
138.956353297
 30
0.0
  0
VERTEX
  8
0
 10
105.5973215
 20
142.343646703
 30
0.0
  0
VERTEX
  8
0
 10
104.731296096
 20
141.843646703
 30
0.0
  0
VERTEX
  8
0
 10
105.5973215
 20
142.353646703
 30
0.0
  0
VERTEX
  8
0
 10
105.5973215
 20
148.656353297
 30
0.0
  0
VERTEX
  8
0
 10
111.464285778
 20
152.043646703
 30
0.0
  0
VERTEX
  8
0
 10
112.330311181
 20
151.543646703
 30
0.0
  0
VERTEX
  8
0
 10
111.464285778
 20
152.053646703
 30
0.0
  0
VERTEX
  8
0
 10
111.464285778
 20
155.19
 30
0.0
  0
VERTEX
  8
0
 10
111.031273076
 20
155.2
 30
0.0
  0
VERTEX
  8
0
 10
111.464285778
 20
155.2
 30
0.0
  0
VERTEX
  8
0
 10
113.732922273
 20
155.2
 30
0.0
  0
VERTEX
  8
0
 10
118.929074696
 20
152.2
 30
0.0
  0
VERTEX
  8
0
 10
118.929074696
 20
155.19
 30
0.0
  0
VERTEX
  8
0
 10
119.362087398
 20
155.2
 30
0.0
  0
VERTEX
  8
0
 10
118.929074696
 20
155.2
 30
0.0
  0
VERTEX
  8
0
 10
118.929074696
 20
180.2
 30
0.0
  0
VERTEX
  8
0
 10
123.1973215
 20
180.2
 30
0.0
  0
VERTEX
  8
0
 10
123.1973215
 20
157.7
 30
0.0
  0
SEQEND
  8
0
  0
POLYLINE
  8
0
 62
0
 70
0
 66
1
 10
0.0
 20
0.0
 30
0.0
  0
VERTEX
  8
0
 10
98.1325325811
 20
103.71
 30
0.0
  0
VERTEX
  8
0
 10
98.1325325811
 20
109.7
 30
0.0
  0
VERTEX
  8
0
 10
103.328685004
 20
106.7
 30
0.0
  0
VERTEX
  8
0
 10
98.1325325811
 20
103.7
 30
0.0
  0
SEQEND
  8
0
  0
POLYLINE
  8
0
 62
0
 70
0
 66
1
 10
0.0
 20
0.0
 30
0.0
  0
VERTEX
  8
0
 10
107.196038974
 20
16.41
 30
0.0
  0
VERTEX
  8
0
 10
107.196038974
 20
22.4
 30
0.0
  0
VERTEX
  8
0
 10
101.999886551
 20
19.4
 30
0.0
  0
VERTEX
  8
0
 10
107.196038974
 20
16.4
 30
0.0
  0
SEQEND
  8
0
  0
POLYLINE
  8
0
 62
0
 70
0
 66
1
 10
0.0
 20
0.0
 30
0.0
  0
VERTEX
  8
0
 10
98.1325325811
 20
45.51
 30
0.0
  0
VERTEX
  8
0
 10
98.1325325811
 20
51.5
 30
0.0
  0
VERTEX
  8
0
 10
103.328685004
 20
48.5
 30
0.0
  0
VERTEX
  8
0
 10
98.1325325811
 20
45.5
 30
0.0
  0
SEQEND
  8
0
  0
POLYLINE
  8
0
 62
0
 70
0
 66
1
 10
0.0
 20
0.0
 30
0.0
  0
VERTEX
  8
0
 10
98.1325325811
 20
84.31
 30
0.0
  0
VERTEX
  8
0
 10
98.1325325811
 20
90.3
 30
0.0
  0
VERTEX
  8
0
 10
103.328685004
 20
87.3
 30
0.0
  0
VERTEX
  8
0
 10
98.1325325811
 20
84.3
 30
0.0
  0
SEQEND
  8
0
  0
POLYLINE
  8
0
 62
0
 70
0
 66
1
 10
0.0
 20
0.0
 30
0.0
  0
VERTEX
  8
0
 10
107.196038974
 20
94.01
 30
0.0
  0
VERTEX
  8
0
 10
107.196038974
 20
100.0
 30
0.0
  0
VERTEX
  8
0
 10
101.999886551
 20
97.0
 30
0.0
  0
VERTEX
  8
0
 10
107.196038974
 20
94.0
 30
0.0
  0
SEQEND
  8
0
  0
POLYLINE
  8
0
 62
0
 70
0
 66
1
 10
0.0
 20
0.0
 30
0.0
  0
VERTEX
  8
0
 10
98.1325325811
 20
6.71
 30
0.0
  0
VERTEX
  8
0
 10
98.1325325811
 20
12.7
 30
0.0
  0
VERTEX
  8
0
 10
103.328685004
 20
9.7
 30
0.0
  0
VERTEX
  8
0
 10
98.1325325811
 20
6.7
 30
0.0
  0
SEQEND
  8
0
  0
POLYLINE
  8
0
 62
0
 70
0
 66
1
 10
0.0
 20
0.0
 30
0.0
  0
VERTEX
  8
0
 10
107.196038974
 20
132.81
 30
0.0
  0
VERTEX
  8
0
 10
107.196038974
 20
138.8
 30
0.0
  0
VERTEX
  8
0
 10
101.999886551
 20
135.8
 30
0.0
  0
VERTEX
  8
0
 10
107.196038974
 20
132.8
 30
0.0
  0
SEQEND
  8
0
  0
POLYLINE
  8
0
 62
0
 70
0
 66
1
 10
0.0
 20
0.0
 30
0.0
  0
VERTEX
  8
0
 10
107.196038974
 20
35.81
 30
0.0
  0
VERTEX
  8
0
 10
107.196038974
 20
41.8
 30
0.0
  0
VERTEX
  8
0
 10
101.999886551
 20
38.8
 30
0.0
  0
VERTEX
  8
0
 10
107.196038974
 20
35.8
 30
0.0
  0
SEQEND
  8
0
  0
POLYLINE
  8
0
 62
0
 70
0
 66
1
 10
0.0
 20
0.0
 30
0.0
  0
VERTEX
  8
0
 10
107.196038974
 20
74.61
 30
0.0
  0
VERTEX
  8
0
 10
107.196038974
 20
80.6
 30
0.0
  0
VERTEX
  8
0
 10
101.999886551
 20
77.6
 30
0.0
  0
VERTEX
  8
0
 10
107.196038974
 20
74.6
 30
0.0
  0
SEQEND
  8
0
  0
POLYLINE
  8
0
 62
0
 70
0
 66
1
 10
0.0
 20
0.0
 30
0.0
  0
VERTEX
  8
0
 10
107.196038974
 20
113.41
 30
0.0
  0
VERTEX
  8
0
 10
107.196038974
 20
119.4
 30
0.0
  0
VERTEX
  8
0
 10
101.999886551
 20
116.4
 30
0.0
  0
VERTEX
  8
0
 10
107.196038974
 20
113.4
 30
0.0
  0
SEQEND
  8
0
  0
POLYLINE
  8
0
 62
0
 70
0
 66
1
 10
0.0
 20
0.0
 30
0.0
  0
VERTEX
  8
0
 10
98.1325325811
 20
142.51
 30
0.0
  0
VERTEX
  8
0
 10
98.1325325811
 20
148.5
 30
0.0
  0
VERTEX
  8
0
 10
103.328685004
 20
145.5
 30
0.0
  0
VERTEX
  8
0
 10
98.1325325811
 20
142.5
 30
0.0
  0
SEQEND
  8
0
  0
POLYLINE
  8
0
 62
0
 70
0
 66
1
 10
0.0
 20
0.0
 30
0.0
  0
VERTEX
  8
0
 10
86.3994968589
 20
123.11
 30
0.0
  0
VERTEX
  8
0
 10
86.3994968589
 20
129.1
 30
0.0
  0
VERTEX
  8
0
 10
91.5956492816
 20
126.1
 30
0.0
  0
VERTEX
  8
0
 10
86.3994968589
 20
123.1
 30
0.0
  0
SEQEND
  8
0
  0
POLYLINE
  8
0
 62
0
 70
0
 66
1
 10
0.0
 20
0.0
 30
0.0
  0
VERTEX
  8
0
 10
109.865568303
 20
26.11
 30
0.0
  0
VERTEX
  8
0
 10
109.865568303
 20
32.1
 30
0.0
  0
VERTEX
  8
0
 10
115.061720726
 20
29.1
 30
0.0
  0
VERTEX
  8
0
 10
109.865568303
 20
26.1
 30
0.0
  0
SEQEND
  8
0
  0
POLYLINE
  8
0
 62
0
 70
0
 66
1
 10
0.0
 20
0.0
 30
0.0
  0
VERTEX
  8
0
 10
118.929074696
 20
35.81
 30
0.0
  0
VERTEX
  8
0
 10
118.929074696
 20
41.8
 30
0.0
  0
VERTEX
  8
0
 10
113.732922273
 20
38.8
 30
0.0
  0
VERTEX
  8
0
 10
118.929074696
 20
35.8
 30
0.0
  0
SEQEND
  8
0
  0
POLYLINE
  8
0
 62
0
 70
0
 66
1
 10
0.0
 20
0.0
 30
0.0
  0
VERTEX
  8
0
 10
118.929074696
 20
55.21
 30
0.0
  0
VERTEX
  8
0
 10
118.929074696
 20
61.2
 30
0.0
  0
VERTEX
  8
0
 10
113.732922273
 20
58.2
 30
0.0
  0
VERTEX
  8
0
 10
118.929074696
 20
55.2
 30
0.0
  0
SEQEND
  8
0
  0
POLYLINE
  8
0
 62
0
 70
0
 66
1
 10
0.0
 20
0.0
 30
0.0
  0
VERTEX
  8
0
 10
118.929074696
 20
16.41
 30
0.0
  0
VERTEX
  8
0
 10
118.929074696
 20
22.4
 30
0.0
  0
VERTEX
  8
0
 10
113.732922273
 20
19.4
 30
0.0
  0
VERTEX
  8
0
 10
118.929074696
 20
16.4
 30
0.0
  0
SEQEND
  8
0
  0
POLYLINE
  8
0
 62
0
 70
0
 66
1
 10
0.0
 20
0.0
 30
0.0
  0
VERTEX
  8
0
 10
98.1325325811
 20
123.11
 30
0.0
  0
VERTEX
  8
0
 10
98.1325325811
 20
129.1
 30
0.0
  0
VERTEX
  8
0
 10
103.328685004
 20
126.1
 30
0.0
  0
VERTEX
  8
0
 10
98.1325325811
 20
123.1
 30
0.0
  0
SEQEND
  8
0
  0
POLYLINE
  8
0
 62
0
 70
0
 66
1
 10
0.0
 20
0.0
 30
0.0
  0
VERTEX
  8
0
 10
109.865568303
 20
64.91
 30
0.0
  0
VERTEX
  8
0
 10
109.865568303
 20
70.9
 30
0.0
  0
VERTEX
  8
0
 10
115.061720726
 20
67.9
 30
0.0
  0
VERTEX
  8
0
 10
109.865568303
 20
64.9
 30
0.0
  0
SEQEND
  8
0
  0
POLYLINE
  8
0
 62
0
 70
0
 66
1
 10
0.0
 20
0.0
 30
0.0
  0
VERTEX
  8
0
 10
109.865568303
 20
6.71
 30
0.0
  0
VERTEX
  8
0
 10
109.865568303
 20
12.7
 30
0.0
  0
VERTEX
  8
0
 10
115.061720726
 20
9.7
 30
0.0
  0
VERTEX
  8
0
 10
109.865568303
 20
6.7
 30
0.0
  0
SEQEND
  8
0
  0
POLYLINE
  8
0
 62
0
 70
0
 66
1
 10
0.0
 20
0.0
 30
0.0
  0
VERTEX
  8
0
 10
109.865568303
 20
45.51
 30
0.0
  0
VERTEX
  8
0
 10
109.865568303
 20
51.5
 30
0.0
  0
VERTEX
  8
0
 10
115.061720726
 20
48.5
 30
0.0
  0
VERTEX
  8
0
 10
109.865568303
 20
45.5
 30
0.0
  0
SEQEND
  8
0
  0
POLYLINE
  8
0
 62
0
 70
0
 66
1
 10
0.0
 20
0.0
 30
0.0
  0
VERTEX
  8
0
 10
130.662110418
 20
94.01
 30
0.0
  0
VERTEX
  8
0
 10
130.662110418
 20
100.0
 30
0.0
  0
VERTEX
  8
0
 10
125.465957996
 20
97.0
 30
0.0
  0
VERTEX
  8
0
 10
130.662110418
 20
94.0
 30
0.0
  0
SEQEND
  8
0
  0
POLYLINE
  8
0
 62
0
 70
0
 66
1
 10
0.0
 20
0.0
 30
0.0
  0
VERTEX
  8
0
 10
118.929074696
 20
113.41
 30
0.0
  0
VERTEX
  8
0
 10
118.929074696
 20
119.4
 30
0.0
  0
VERTEX
  8
0
 10
113.732922273
 20
116.4
 30
0.0
  0
VERTEX
  8
0
 10
118.929074696
 20
113.4
 30
0.0
  0
SEQEND
  8
0
  0
POLYLINE
  8
0
 62
0
 70
0
 66
1
 10
0.0
 20
0.0
 30
0.0
  0
VERTEX
  8
0
 10
130.662110418
 20
16.41
 30
0.0
  0
VERTEX
  8
0
 10
130.662110418
 20
22.4
 30
0.0
  0
VERTEX
  8
0
 10
125.465957996
 20
19.4
 30
0.0
  0
VERTEX
  8
0
 10
130.662110418
 20
16.4
 30
0.0
  0
SEQEND
  8
0
  0
POLYLINE
  8
0
 62
0
 70
0
 66
1
 10
0.0
 20
0.0
 30
0.0
  0
VERTEX
  8
0
 10
130.662110418
 20
74.61
 30
0.0
  0
VERTEX
  8
0
 10
130.662110418
 20
80.6
 30
0.0
  0
VERTEX
  8
0
 10
125.465957996
 20
77.6
 30
0.0
  0
VERTEX
  8
0
 10
130.662110418
 20
74.6
 30
0.0
  0
SEQEND
  8
0
  0
POLYLINE
  8
0
 62
0
 70
0
 66
1
 10
0.0
 20
0.0
 30
0.0
  0
VERTEX
  8
0
 10
121.598604026
 20
142.51
 30
0.0
  0
VERTEX
  8
0
 10
121.598604026
 20
148.5
 30
0.0
  0
VERTEX
  8
0
 10
126.794756448
 20
145.5
 30
0.0
  0
VERTEX
  8
0
 10
121.598604026
 20
142.5
 30
0.0
  0
SEQEND
  8
0
  0
POLYLINE
  8
0
 62
0
 70
0
 66
1
 10
0.0
 20
0.0
 30
0.0
  0
VERTEX
  8
0
 10
133.331639748
 20
6.71
 30
0.0
  0
VERTEX
  8
0
 10
133.331639748
 20
12.7
 30
0.0
  0
VERTEX
  8
0
 10
138.52779217
 20
9.7
 30
0.0
  0
VERTEX
  8
0
 10
133.331639748
 20
6.7
 30
0.0
  0
SEQEND
  8
0
  0
POLYLINE
  8
0
 62
0
 70
0
 66
1
 10
0.0
 20
0.0
 30
0.0
  0
VERTEX
  8
0
 10
133.331639748
 20
26.11
 30
0.0
  0
VERTEX
  8
0
 10
133.331639748
 20
32.1
 30
0.0
  0
VERTEX
  8
0
 10
138.52779217
 20
29.1
 30
0.0
  0
VERTEX
  8
0
 10
133.331639748
 20
26.1
 30
0.0
  0
SEQEND
  8
0
  0
POLYLINE
  8
0
 62
0
 70
0
 66
1
 10
0.0
 20
0.0
 30
0.0
  0
VERTEX
  8
0
 10
133.331639748
 20
45.51
 30
0.0
  0
VERTEX
  8
0
 10
133.331639748
 20
51.5
 30
0.0
  0
VERTEX
  8
0
 10
138.52779217
 20
48.5
 30
0.0
  0
VERTEX
  8
0
 10
133.331639748
 20
45.5
 30
0.0
  0
SEQEND
  8
0
  0
POLYLINE
  8
0
 62
0
 70
0
 66
1
 10
0.0
 20
0.0
 30
0.0
  0
VERTEX
  8
0
 10
109.865568303
 20
84.31
 30
0.0
  0
VERTEX
  8
0
 10
109.865568303
 20
90.3
 30
0.0
  0
VERTEX
  8
0
 10
115.061720726
 20
87.3
 30
0.0
  0
VERTEX
  8
0
 10
109.865568303
 20
84.3
 30
0.0
  0
SEQEND
  8
0
  0
POLYLINE
  8
0
 62
0
 70
0
 66
1
 10
0.0
 20
0.0
 30
0.0
  0
VERTEX
  8
0
 10
118.929074696
 20
94.01
 30
0.0
  0
VERTEX
  8
0
 10
118.929074696
 20
100.0
 30
0.0
  0
VERTEX
  8
0
 10
113.732922273
 20
97.0
 30
0.0
  0
VERTEX
  8
0
 10
118.929074696
 20
94.0
 30
0.0
  0
SEQEND
  8
0
  0
POLYLINE
  8
0
 62
0
 70
0
 66
1
 10
0.0
 20
0.0
 30
0.0
  0
VERTEX
  8
0
 10
109.865568303
 20
123.11
 30
0.0
  0
VERTEX
  8
0
 10
109.865568303
 20
129.1
 30
0.0
  0
VERTEX
  8
0
 10
115.061720726
 20
126.1
 30
0.0
  0
VERTEX
  8
0
 10
109.865568303
 20
123.1
 30
0.0
  0
SEQEND
  8
0
  0
POLYLINE
  8
0
 62
0
 70
0
 66
1
 10
0.0
 20
0.0
 30
0.0
  0
VERTEX
  8
0
 10
130.662110418
 20
35.81
 30
0.0
  0
VERTEX
  8
0
 10
130.662110418
 20
41.8
 30
0.0
  0
VERTEX
  8
0
 10
125.465957996
 20
38.8
 30
0.0
  0
VERTEX
  8
0
 10
130.662110418
 20
35.8
 30
0.0
  0
SEQEND
  8
0
  0
POLYLINE
  8
0
 62
0
 70
0
 66
1
 10
0.0
 20
0.0
 30
0.0
  0
VERTEX
  8
0
 10
121.598604026
 20
45.51
 30
0.0
  0
VERTEX
  8
0
 10
121.598604026
 20
51.5
 30
0.0
  0
VERTEX
  8
0
 10
126.794756448
 20
48.5
 30
0.0
  0
VERTEX
  8
0
 10
121.598604026
 20
45.5
 30
0.0
  0
SEQEND
  8
0
  0
POLYLINE
  8
0
 62
0
 70
0
 66
1
 10
0.0
 20
0.0
 30
0.0
  0
VERTEX
  8
0
 10
109.865568303
 20
103.71
 30
0.0
  0
VERTEX
  8
0
 10
109.865568303
 20
109.7
 30
0.0
  0
VERTEX
  8
0
 10
115.061720726
 20
106.7
 30
0.0
  0
VERTEX
  8
0
 10
109.865568303
 20
103.7
 30
0.0
  0
SEQEND
  8
0
  0
POLYLINE
  8
0
 62
0
 70
0
 66
1
 10
0.0
 20
0.0
 30
0.0
  0
VERTEX
  8
0
 10
121.598604026
 20
64.91
 30
0.0
  0
VERTEX
  8
0
 10
121.598604026
 20
70.9
 30
0.0
  0
VERTEX
  8
0
 10
126.794756448
 20
67.9
 30
0.0
  0
VERTEX
  8
0
 10
121.598604026
 20
64.9
 30
0.0
  0
SEQEND
  8
0
  0
POLYLINE
  8
0
 62
0
 70
0
 66
1
 10
0.0
 20
0.0
 30
0.0
  0
VERTEX
  8
0
 10
130.662110418
 20
55.21
 30
0.0
  0
VERTEX
  8
0
 10
130.662110418
 20
61.2
 30
0.0
  0
VERTEX
  8
0
 10
125.465957996
 20
58.2
 30
0.0
  0
VERTEX
  8
0
 10
130.662110418
 20
55.2
 30
0.0
  0
SEQEND
  8
0
  0
POLYLINE
  8
0
 62
0
 70
0
 66
1
 10
0.0
 20
0.0
 30
0.0
  0
VERTEX
  8
0
 10
118.929074696
 20
132.81
 30
0.0
  0
VERTEX
  8
0
 10
118.929074696
 20
138.8
 30
0.0
  0
VERTEX
  8
0
 10
113.732922273
 20
135.8
 30
0.0
  0
VERTEX
  8
0
 10
118.929074696
 20
132.8
 30
0.0
  0
SEQEND
  8
0
  0
POLYLINE
  8
0
 62
0
 70
0
 66
1
 10
0.0
 20
0.0
 30
0.0
  0
VERTEX
  8
0
 10
123.1973215
 20
3.14635329744
 30
0.0
  0
VERTEX
  8
0
 10
124.063346904
 20
3.65635329744
 30
0.0
  0
VERTEX
  8
0
 10
123.1973215
 20
3.15635329744
 30
0.0
  0
VERTEX
  8
0
 10
117.330357222
 20
6.54364670256
 30
0.0
  0
VERTEX
  8
0
 10
116.464331818
 20
6.04364670256
 30
0.0
  0
VERTEX
  8
0
 10
117.330357222
 20
6.55364670256
 30
0.0
  0
VERTEX
  8
0
 10
117.330357222
 20
12.8463532974
 30
0.0
  0
VERTEX
  8
0
 10
116.464331818
 20
13.3563532974
 30
0.0
  0
VERTEX
  8
0
 10
117.330357222
 20
12.8563532974
 30
0.0
  0
VERTEX
  8
0
 10
123.1973215
 20
16.2436467026
 30
0.0
  0
VERTEX
  8
0
 10
124.063346904
 20
15.7436467026
 30
0.0
  0
VERTEX
  8
0
 10
123.1973215
 20
16.2536467026
 30
0.0
  0
VERTEX
  8
0
 10
123.1973215
 20
22.5463532974
 30
0.0
  0
VERTEX
  8
0
 10
124.063346904
 20
23.0563532974
 30
0.0
  0
VERTEX
  8
0
 10
123.1973215
 20
22.5563532974
 30
0.0
  0
VERTEX
  8
0
 10
117.330357222
 20
25.9436467026
 30
0.0
  0
VERTEX
  8
0
 10
116.464331818
 20
25.4436467026
 30
0.0
  0
VERTEX
  8
0
 10
117.330357222
 20
25.9536467026
 30
0.0
  0
VERTEX
  8
0
 10
117.330357222
 20
32.2463532974
 30
0.0
  0
VERTEX
  8
0
 10
116.464331818
 20
32.7563532974
 30
0.0
  0
VERTEX
  8
0
 10
117.330357222
 20
32.2563532974
 30
0.0
  0
VERTEX
  8
0
 10
123.1973215
 20
35.6436467026
 30
0.0
  0
VERTEX
  8
0
 10
124.063346904
 20
35.1436467026
 30
0.0
  0
VERTEX
  8
0
 10
123.1973215
 20
35.6536467026
 30
0.0
  0
VERTEX
  8
0
 10
123.1973215
 20
41.9463532974
 30
0.0
  0
VERTEX
  8
0
 10
124.063346904
 20
42.4563532974
 30
0.0
  0
VERTEX
  8
0
 10
123.1973215
 20
41.9563532974
 30
0.0
  0
VERTEX
  8
0
 10
117.330357222
 20
45.3436467026
 30
0.0
  0
VERTEX
  8
0
 10
116.464331818
 20
44.8436467026
 30
0.0
  0
VERTEX
  8
0
 10
117.330357222
 20
45.3536467026
 30
0.0
  0
VERTEX
  8
0
 10
117.330357222
 20
51.6463532974
 30
0.0
  0
VERTEX
  8
0
 10
116.464331818
 20
52.1563532974
 30
0.0
  0
VERTEX
  8
0
 10
117.330357222
 20
51.6563532974
 30
0.0
  0
VERTEX
  8
0
 10
123.1973215
 20
55.0436467026
 30
0.0
  0
VERTEX
  8
0
 10
124.063346904
 20
54.5436467026
 30
0.0
  0
VERTEX
  8
0
 10
123.1973215
 20
55.0536467026
 30
0.0
  0
VERTEX
  8
0
 10
123.1973215
 20
61.3463532974
 30
0.0
  0
VERTEX
  8
0
 10
124.063346904
 20
61.8563532974
 30
0.0
  0
VERTEX
  8
0
 10
123.1973215
 20
61.3563532974
 30
0.0
  0
VERTEX
  8
0
 10
117.330357222
 20
64.7436467026
 30
0.0
  0
VERTEX
  8
0
 10
116.464331818
 20
64.2436467026
 30
0.0
  0
VERTEX
  8
0
 10
117.330357222
 20
64.7536467026
 30
0.0
  0
VERTEX
  8
0
 10
117.330357222
 20
71.0463532974
 30
0.0
  0
VERTEX
  8
0
 10
116.464331818
 20
71.5563532974
 30
0.0
  0
VERTEX
  8
0
 10
117.330357222
 20
71.0563532974
 30
0.0
  0
VERTEX
  8
0
 10
123.1973215
 20
74.4436467026
 30
0.0
  0
VERTEX
  8
0
 10
124.063346904
 20
73.9436467026
 30
0.0
  0
VERTEX
  8
0
 10
123.1973215
 20
74.4536467026
 30
0.0
  0
VERTEX
  8
0
 10
123.1973215
 20
80.7463532974
 30
0.0
  0
VERTEX
  8
0
 10
124.063346904
 20
81.2563532974
 30
0.0
  0
VERTEX
  8
0
 10
123.1973215
 20
80.7563532974
 30
0.0
  0
VERTEX
  8
0
 10
117.330357222
 20
84.1436467026
 30
0.0
  0
VERTEX
  8
0
 10
116.464331818
 20
83.6436467026
 30
0.0
  0
VERTEX
  8
0
 10
117.330357222
 20
84.1536467026
 30
0.0
  0
VERTEX
  8
0
 10
117.330357222
 20
90.4463532974
 30
0.0
  0
VERTEX
  8
0
 10
116.464331818
 20
90.9563532974
 30
0.0
  0
VERTEX
  8
0
 10
117.330357222
 20
90.4563532974
 30
0.0
  0
VERTEX
  8
0
 10
123.1973215
 20
93.8436467026
 30
0.0
  0
VERTEX
  8
0
 10
124.063346904
 20
93.3436467026
 30
0.0
  0
VERTEX
  8
0
 10
123.1973215
 20
93.8536467026
 30
0.0
  0
VERTEX
  8
0
 10
123.1973215
 20
100.146353297
 30
0.0
  0
VERTEX
  8
0
 10
124.063346904
 20
100.656353297
 30
0.0
  0
VERTEX
  8
0
 10
123.1973215
 20
100.156353297
 30
0.0
  0
VERTEX
  8
0
 10
117.330357222
 20
103.543646703
 30
0.0
  0
VERTEX
  8
0
 10
116.464331818
 20
103.043646703
 30
0.0
  0
VERTEX
  8
0
 10
117.330357222
 20
103.553646703
 30
0.0
  0
VERTEX
  8
0
 10
117.330357222
 20
109.846353297
 30
0.0
  0
VERTEX
  8
0
 10
116.464331818
 20
110.356353297
 30
0.0
  0
VERTEX
  8
0
 10
117.330357222
 20
109.856353297
 30
0.0
  0
VERTEX
  8
0
 10
123.1973215
 20
113.243646703
 30
0.0
  0
VERTEX
  8
0
 10
124.063346904
 20
112.743646703
 30
0.0
  0
VERTEX
  8
0
 10
123.1973215
 20
113.253646703
 30
0.0
  0
VERTEX
  8
0
 10
123.1973215
 20
119.546353297
 30
0.0
  0
VERTEX
  8
0
 10
124.063346904
 20
120.056353297
 30
0.0
  0
VERTEX
  8
0
 10
123.1973215
 20
119.556353297
 30
0.0
  0
VERTEX
  8
0
 10
117.330357222
 20
122.943646703
 30
0.0
  0
VERTEX
  8
0
 10
116.464331818
 20
122.443646703
 30
0.0
  0
VERTEX
  8
0
 10
117.330357222
 20
122.953646703
 30
0.0
  0
VERTEX
  8
0
 10
117.330357222
 20
129.246353297
 30
0.0
  0
VERTEX
  8
0
 10
116.464331818
 20
129.756353297
 30
0.0
  0
VERTEX
  8
0
 10
117.330357222
 20
129.256353297
 30
0.0
  0
VERTEX
  8
0
 10
123.1973215
 20
132.643646703
 30
0.0
  0
VERTEX
  8
0
 10
124.063346904
 20
132.143646703
 30
0.0
  0
VERTEX
  8
0
 10
123.1973215
 20
132.653646703
 30
0.0
  0
VERTEX
  8
0
 10
123.1973215
 20
138.946353297
 30
0.0
  0
VERTEX
  8
0
 10
124.063346904
 20
139.456353297
 30
0.0
  0
VERTEX
  8
0
 10
123.1973215
 20
138.956353297
 30
0.0
  0
VERTEX
  8
0
 10
117.330357222
 20
142.343646703
 30
0.0
  0
VERTEX
  8
0
 10
116.464331818
 20
141.843646703
 30
0.0
  0
VERTEX
  8
0
 10
117.330357222
 20
142.353646703
 30
0.0
  0
VERTEX
  8
0
 10
117.330357222
 20
148.656353297
 30
0.0
  0
VERTEX
  8
0
 10
123.1973215
 20
152.043646703
 30
0.0
  0
VERTEX
  8
0
 10
124.063346904
 20
151.543646703
 30
0.0
  0
VERTEX
  8
0
 10
123.1973215
 20
152.053646703
 30
0.0
  0
VERTEX
  8
0
 10
123.1973215
 20
155.19
 30
0.0
  0
VERTEX
  8
0
 10
122.764308798
 20
155.2
 30
0.0
  0
VERTEX
  8
0
 10
123.1973215
 20
155.2
 30
0.0
  0
VERTEX
  8
0
 10
125.465957996
 20
155.2
 30
0.0
  0
VERTEX
  8
0
 10
130.662110418
 20
152.2
 30
0.0
  0
VERTEX
  8
0
 10
130.662110418
 20
155.19
 30
0.0
  0
VERTEX
  8
0
 10
131.09512312
 20
155.2
 30
0.0
  0
VERTEX
  8
0
 10
130.662110418
 20
155.2
 30
0.0
  0
VERTEX
  8
0
 10
130.662110418
 20
180.2
 30
0.0
  0
VERTEX
  8
0
 10
134.930357222
 20
180.2
 30
0.0
  0
VERTEX
  8
0
 10
134.930357222
 20
157.7
 30
0.0
  0
SEQEND
  8
0
  0
POLYLINE
  8
0
 62
0
 70
0
 66
1
 10
0.0
 20
0.0
 30
0.0
  0
VERTEX
  8
0
 10
121.598604026
 20
6.71
 30
0.0
  0
VERTEX
  8
0
 10
121.598604026
 20
12.7
 30
0.0
  0
VERTEX
  8
0
 10
126.794756448
 20
9.7
 30
0.0
  0
VERTEX
  8
0
 10
121.598604026
 20
6.7
 30
0.0
  0
SEQEND
  8
0
  0
POLYLINE
  8
0
 62
0
 70
0
 66
1
 10
0.0
 20
0.0
 30
0.0
  0
VERTEX
  8
0
 10
121.598604026
 20
26.11
 30
0.0
  0
VERTEX
  8
0
 10
121.598604026
 20
32.1
 30
0.0
  0
VERTEX
  8
0
 10
126.794756448
 20
29.1
 30
0.0
  0
VERTEX
  8
0
 10
121.598604026
 20
26.1
 30
0.0
  0
SEQEND
  8
0
  0
POLYLINE
  8
0
 62
0
 70
0
 66
1
 10
0.0
 20
0.0
 30
0.0
  0
VERTEX
  8
0
 10
121.598604026
 20
84.31
 30
0.0
  0
VERTEX
  8
0
 10
121.598604026
 20
90.3
 30
0.0
  0
VERTEX
  8
0
 10
126.794756448
 20
87.3
 30
0.0
  0
VERTEX
  8
0
 10
121.598604026
 20
84.3
 30
0.0
  0
SEQEND
  8
0
  0
POLYLINE
  8
0
 62
0
 70
0
 66
1
 10
0.0
 20
0.0
 30
0.0
  0
VERTEX
  8
0
 10
109.865568303
 20
142.51
 30
0.0
  0
VERTEX
  8
0
 10
109.865568303
 20
148.5
 30
0.0
  0
VERTEX
  8
0
 10
115.061720726
 20
145.5
 30
0.0
  0
VERTEX
  8
0
 10
109.865568303
 20
142.5
 30
0.0
  0
SEQEND
  8
0
  0
POLYLINE
  8
0
 62
0
 70
0
 66
1
 10
0.0
 20
0.0
 30
0.0
  0
VERTEX
  8
0
 10
121.598604026
 20
103.71
 30
0.0
  0
VERTEX
  8
0
 10
121.598604026
 20
109.7
 30
0.0
  0
VERTEX
  8
0
 10
126.794756448
 20
106.7
 30
0.0
  0
VERTEX
  8
0
 10
121.598604026
 20
103.7
 30
0.0
  0
SEQEND
  8
0
  0
POLYLINE
  8
0
 62
0
 70
0
 66
1
 10
0.0
 20
0.0
 30
0.0
  0
VERTEX
  8
0
 10
130.662110418
 20
113.41
 30
0.0
  0
VERTEX
  8
0
 10
130.662110418
 20
119.4
 30
0.0
  0
VERTEX
  8
0
 10
125.465957996
 20
116.4
 30
0.0
  0
VERTEX
  8
0
 10
130.662110418
 20
113.4
 30
0.0
  0
SEQEND
  8
0
  0
POLYLINE
  8
0
 62
0
 70
0
 66
1
 10
0.0
 20
0.0
 30
0.0
  0
VERTEX
  8
0
 10
121.598604026
 20
123.11
 30
0.0
  0
VERTEX
  8
0
 10
121.598604026
 20
129.1
 30
0.0
  0
VERTEX
  8
0
 10
126.794756448
 20
126.1
 30
0.0
  0
VERTEX
  8
0
 10
121.598604026
 20
123.1
 30
0.0
  0
SEQEND
  8
0
  0
POLYLINE
  8
0
 62
0
 70
0
 66
1
 10
0.0
 20
0.0
 30
0.0
  0
VERTEX
  8
0
 10
130.662110418
 20
132.81
 30
0.0
  0
VERTEX
  8
0
 10
130.662110418
 20
138.8
 30
0.0
  0
VERTEX
  8
0
 10
125.465957996
 20
135.8
 30
0.0
  0
VERTEX
  8
0
 10
130.662110418
 20
132.8
 30
0.0
  0
SEQEND
  8
0
  0
POLYLINE
  8
0
 62
0
 70
0
 66
1
 10
0.0
 20
0.0
 30
0.0
  0
VERTEX
  8
0
 10
134.930357222
 20
3.14635329744
 30
0.0
  0
VERTEX
  8
0
 10
135.796382626
 20
3.65635329744
 30
0.0
  0
VERTEX
  8
0
 10
134.930357222
 20
3.15635329744
 30
0.0
  0
VERTEX
  8
0
 10
129.063392944
 20
6.54364670256
 30
0.0
  0
VERTEX
  8
0
 10
128.19736754
 20
6.04364670256
 30
0.0
  0
VERTEX
  8
0
 10
129.063392944
 20
6.55364670256
 30
0.0
  0
VERTEX
  8
0
 10
129.063392944
 20
12.8463532974
 30
0.0
  0
VERTEX
  8
0
 10
128.19736754
 20
13.3563532974
 30
0.0
  0
VERTEX
  8
0
 10
129.063392944
 20
12.8563532974
 30
0.0
  0
VERTEX
  8
0
 10
134.930357222
 20
16.2436467026
 30
0.0
  0
VERTEX
  8
0
 10
135.796382626
 20
15.7436467026
 30
0.0
  0
VERTEX
  8
0
 10
134.930357222
 20
16.2536467026
 30
0.0
  0
VERTEX
  8
0
 10
134.930357222
 20
22.5463532974
 30
0.0
  0
VERTEX
  8
0
 10
135.796382626
 20
23.0563532974
 30
0.0
  0
VERTEX
  8
0
 10
134.930357222
 20
22.5563532974
 30
0.0
  0
VERTEX
  8
0
 10
129.063392944
 20
25.9436467026
 30
0.0
  0
VERTEX
  8
0
 10
128.19736754
 20
25.4436467026
 30
0.0
  0
VERTEX
  8
0
 10
129.063392944
 20
25.9536467026
 30
0.0
  0
VERTEX
  8
0
 10
129.063392944
 20
32.2463532974
 30
0.0
  0
VERTEX
  8
0
 10
128.19736754
 20
32.7563532974
 30
0.0
  0
VERTEX
  8
0
 10
129.063392944
 20
32.2563532974
 30
0.0
  0
VERTEX
  8
0
 10
134.930357222
 20
35.6436467026
 30
0.0
  0
VERTEX
  8
0
 10
135.796382626
 20
35.1436467026
 30
0.0
  0
VERTEX
  8
0
 10
134.930357222
 20
35.6536467026
 30
0.0
  0
VERTEX
  8
0
 10
134.930357222
 20
41.9463532974
 30
0.0
  0
VERTEX
  8
0
 10
135.796382626
 20
42.4563532974
 30
0.0
  0
VERTEX
  8
0
 10
134.930357222
 20
41.9563532974
 30
0.0
  0
VERTEX
  8
0
 10
129.063392944
 20
45.3436467026
 30
0.0
  0
VERTEX
  8
0
 10
128.19736754
 20
44.8436467026
 30
0.0
  0
VERTEX
  8
0
 10
129.063392944
 20
45.3536467026
 30
0.0
  0
VERTEX
  8
0
 10
129.063392944
 20
51.6463532974
 30
0.0
  0
VERTEX
  8
0
 10
128.19736754
 20
52.1563532974
 30
0.0
  0
VERTEX
  8
0
 10
129.063392944
 20
51.6563532974
 30
0.0
  0
VERTEX
  8
0
 10
134.930357222
 20
55.0436467026
 30
0.0
  0
VERTEX
  8
0
 10
135.796382626
 20
54.5436467026
 30
0.0
  0
VERTEX
  8
0
 10
134.930357222
 20
55.0536467026
 30
0.0
  0
VERTEX
  8
0
 10
134.930357222
 20
61.3463532974
 30
0.0
  0
VERTEX
  8
0
 10
135.796382626
 20
61.8563532974
 30
0.0
  0
VERTEX
  8
0
 10
134.930357222
 20
61.3563532974
 30
0.0
  0
VERTEX
  8
0
 10
129.063392944
 20
64.7436467026
 30
0.0
  0
VERTEX
  8
0
 10
128.19736754
 20
64.2436467026
 30
0.0
  0
VERTEX
  8
0
 10
129.063392944
 20
64.7536467026
 30
0.0
  0
VERTEX
  8
0
 10
129.063392944
 20
71.0463532974
 30
0.0
  0
VERTEX
  8
0
 10
128.19736754
 20
71.5563532974
 30
0.0
  0
VERTEX
  8
0
 10
129.063392944
 20
71.0563532974
 30
0.0
  0
VERTEX
  8
0
 10
134.930357222
 20
74.4436467026
 30
0.0
  0
VERTEX
  8
0
 10
135.796382626
 20
73.9436467026
 30
0.0
  0
VERTEX
  8
0
 10
134.930357222
 20
74.4536467026
 30
0.0
  0
VERTEX
  8
0
 10
134.930357222
 20
80.7463532974
 30
0.0
  0
VERTEX
  8
0
 10
135.796382626
 20
81.2563532974
 30
0.0
  0
VERTEX
  8
0
 10
134.930357222
 20
80.7563532974
 30
0.0
  0
VERTEX
  8
0
 10
129.063392944
 20
84.1436467026
 30
0.0
  0
VERTEX
  8
0
 10
128.19736754
 20
83.6436467026
 30
0.0
  0
VERTEX
  8
0
 10
129.063392944
 20
84.1536467026
 30
0.0
  0
VERTEX
  8
0
 10
129.063392944
 20
90.4463532974
 30
0.0
  0
VERTEX
  8
0
 10
128.19736754
 20
90.9563532974
 30
0.0
  0
VERTEX
  8
0
 10
129.063392944
 20
90.4563532974
 30
0.0
  0
VERTEX
  8
0
 10
134.930357222
 20
93.8436467026
 30
0.0
  0
VERTEX
  8
0
 10
135.796382626
 20
93.3436467026
 30
0.0
  0
VERTEX
  8
0
 10
134.930357222
 20
93.8536467026
 30
0.0
  0
VERTEX
  8
0
 10
134.930357222
 20
100.146353297
 30
0.0
  0
VERTEX
  8
0
 10
135.796382626
 20
100.656353297
 30
0.0
  0
VERTEX
  8
0
 10
134.930357222
 20
100.156353297
 30
0.0
  0
VERTEX
  8
0
 10
129.063392944
 20
103.543646703
 30
0.0
  0
VERTEX
  8
0
 10
128.19736754
 20
103.043646703
 30
0.0
  0
VERTEX
  8
0
 10
129.063392944
 20
103.553646703
 30
0.0
  0
VERTEX
  8
0
 10
129.063392944
 20
109.846353297
 30
0.0
  0
VERTEX
  8
0
 10
128.19736754
 20
110.356353297
 30
0.0
  0
VERTEX
  8
0
 10
129.063392944
 20
109.856353297
 30
0.0
  0
VERTEX
  8
0
 10
134.930357222
 20
113.243646703
 30
0.0
  0
VERTEX
  8
0
 10
135.796382626
 20
112.743646703
 30
0.0
  0
VERTEX
  8
0
 10
134.930357222
 20
113.253646703
 30
0.0
  0
VERTEX
  8
0
 10
134.930357222
 20
119.546353297
 30
0.0
  0
VERTEX
  8
0
 10
135.796382626
 20
120.056353297
 30
0.0
  0
VERTEX
  8
0
 10
134.930357222
 20
119.556353297
 30
0.0
  0
VERTEX
  8
0
 10
129.063392944
 20
122.943646703
 30
0.0
  0
VERTEX
  8
0
 10
128.19736754
 20
122.443646703
 30
0.0
  0
VERTEX
  8
0
 10
129.063392944
 20
122.953646703
 30
0.0
  0
VERTEX
  8
0
 10
129.063392944
 20
129.246353297
 30
0.0
  0
VERTEX
  8
0
 10
128.19736754
 20
129.756353297
 30
0.0
  0
VERTEX
  8
0
 10
129.063392944
 20
129.256353297
 30
0.0
  0
VERTEX
  8
0
 10
134.930357222
 20
132.643646703
 30
0.0
  0
VERTEX
  8
0
 10
135.796382626
 20
132.143646703
 30
0.0
  0
VERTEX
  8
0
 10
134.930357222
 20
132.653646703
 30
0.0
  0
VERTEX
  8
0
 10
134.930357222
 20
138.946353297
 30
0.0
  0
VERTEX
  8
0
 10
135.796382626
 20
139.456353297
 30
0.0
  0
VERTEX
  8
0
 10
134.930357222
 20
138.956353297
 30
0.0
  0
VERTEX
  8
0
 10
129.063392944
 20
142.343646703
 30
0.0
  0
VERTEX
  8
0
 10
128.19736754
 20
141.843646703
 30
0.0
  0
VERTEX
  8
0
 10
129.063392944
 20
142.353646703
 30
0.0
  0
VERTEX
  8
0
 10
129.063392944
 20
148.656353297
 30
0.0
  0
VERTEX
  8
0
 10
134.930357222
 20
152.043646703
 30
0.0
  0
VERTEX
  8
0
 10
135.796382626
 20
151.543646703
 30
0.0
  0
VERTEX
  8
0
 10
134.930357222
 20
152.053646703
 30
0.0
  0
VERTEX
  8
0
 10
134.930357222
 20
155.19
 30
0.0
  0
VERTEX
  8
0
 10
134.49734452
 20
155.2
 30
0.0
  0
VERTEX
  8
0
 10
134.930357222
 20
155.2
 30
0.0
  0
VERTEX
  8
0
 10
137.198993718
 20
155.2
 30
0.0
  0
VERTEX
  8
0
 10
142.395146141
 20
152.2
 30
0.0
  0
VERTEX
  8
0
 10
142.395146141
 20
155.19
 30
0.0
  0
VERTEX
  8
0
 10
142.828158842
 20
155.2
 30
0.0
  0
VERTEX
  8
0
 10
142.395146141
 20
155.2
 30
0.0
  0
VERTEX
  8
0
 10
142.395146141
 20
180.2
 30
0.0
  0
VERTEX
  8
0
 10
146.663392944
 20
180.2
 30
0.0
  0
VERTEX
  8
0
 10
146.663392944
 20
157.7
 30
0.0
  0
SEQEND
  8
0
  0
POLYLINE
  8
0
 62
0
 70
0
 66
1
 10
0.0
 20
0.0
 30
0.0
  0
VERTEX
  8
0
 10
142.395146141
 20
16.41
 30
0.0
  0
VERTEX
  8
0
 10
142.395146141
 20
22.4
 30
0.0
  0
VERTEX
  8
0
 10
137.198993718
 20
19.4
 30
0.0
  0
VERTEX
  8
0
 10
142.395146141
 20
16.4
 30
0.0
  0
SEQEND
  8
0
  0
POLYLINE
  8
0
 62
0
 70
0
 66
1
 10
0.0
 20
0.0
 30
0.0
  0
VERTEX
  8
0
 10
142.395146141
 20
35.81
 30
0.0
  0
VERTEX
  8
0
 10
142.395146141
 20
41.8
 30
0.0
  0
VERTEX
  8
0
 10
137.198993718
 20
38.8
 30
0.0
  0
VERTEX
  8
0
 10
142.395146141
 20
35.8
 30
0.0
  0
SEQEND
  8
0
  0
POLYLINE
  8
0
 62
0
 70
0
 66
1
 10
0.0
 20
0.0
 30
0.0
  0
VERTEX
  8
0
 10
142.395146141
 20
55.21
 30
0.0
  0
VERTEX
  8
0
 10
142.395146141
 20
61.2
 30
0.0
  0
VERTEX
  8
0
 10
137.198993718
 20
58.2
 30
0.0
  0
VERTEX
  8
0
 10
142.395146141
 20
55.2
 30
0.0
  0
SEQEND
  8
0
  0
POLYLINE
  8
0
 62
0
 70
0
 66
1
 10
0.0
 20
0.0
 30
0.0
  0
VERTEX
  8
0
 10
133.331639748
 20
64.91
 30
0.0
  0
VERTEX
  8
0
 10
133.331639748
 20
70.9
 30
0.0
  0
VERTEX
  8
0
 10
138.52779217
 20
67.9
 30
0.0
  0
VERTEX
  8
0
 10
133.331639748
 20
64.9
 30
0.0
  0
SEQEND
  8
0
  0
POLYLINE
  8
0
 62
0
 70
0
 66
1
 10
0.0
 20
0.0
 30
0.0
  0
VERTEX
  8
0
 10
142.395146141
 20
74.61
 30
0.0
  0
VERTEX
  8
0
 10
142.395146141
 20
80.6
 30
0.0
  0
VERTEX
  8
0
 10
137.198993718
 20
77.6
 30
0.0
  0
VERTEX
  8
0
 10
142.395146141
 20
74.6
 30
0.0
  0
SEQEND
  8
0
  0
POLYLINE
  8
0
 62
0
 70
0
 66
1
 10
0.0
 20
0.0
 30
0.0
  0
VERTEX
  8
0
 10
133.331639748
 20
84.31
 30
0.0
  0
VERTEX
  8
0
 10
133.331639748
 20
90.3
 30
0.0
  0
VERTEX
  8
0
 10
138.52779217
 20
87.3
 30
0.0
  0
VERTEX
  8
0
 10
133.331639748
 20
84.3
 30
0.0
  0
SEQEND
  8
0
  0
POLYLINE
  8
0
 62
0
 70
0
 66
1
 10
0.0
 20
0.0
 30
0.0
  0
VERTEX
  8
0
 10
142.395146141
 20
94.01
 30
0.0
  0
VERTEX
  8
0
 10
142.395146141
 20
100.0
 30
0.0
  0
VERTEX
  8
0
 10
137.198993718
 20
97.0
 30
0.0
  0
VERTEX
  8
0
 10
142.395146141
 20
94.0
 30
0.0
  0
SEQEND
  8
0
  0
ENDSEC
  0
EOF
